ISO-10303-21;
HEADER;
FILE_DESCRIPTION (( 'STEP AP214' ),
    '1' );
FILE_NAME ('am-4535-250 5mm Hex x 250IN Spacer.STEP',
    '2021-02-26T21:27:21',
    ( '' ),
    ( '' ),
    'SwSTEP 2.0',
    'SolidWorks 2019',
    '' );
FILE_SCHEMA (( 'AUTOMOTIVE_DESIGN' ));
ENDSEC;

DATA;
#1 = LINE ( 'NONE', #285, #105 ) ;
#2 = ADVANCED_FACE ( 'NONE', ( #228, #227 ), #226, .T. ) ;
#3 = COLOUR_RGB ( '',0.2509803921568627416, 0.2509803921568627416, 0.2509803921568627416 ) ;
#4 = CYLINDRICAL_SURFACE ( 'NONE', #188, 0.3937007874015748254 ) ;
#5 = VECTOR ( 'NONE', #17, 39.37007874015748854 ) ;
#6 = FACE_OUTER_BOUND ( 'NONE', #234, .T. ) ;
#7 = VECTOR ( 'NONE', #200, 39.37007874015748854 ) ;
#8 = PLANE ( 'NONE',  #25 ) ;
#9 = ADVANCED_FACE ( 'NONE', ( #221 ), #220, .T. ) ;
#10 = FACE_OUTER_BOUND ( 'NONE', #88, .T. ) ;
#11 = DIRECTION ( 'NONE',  ( -1.000000000000000000, 0.0000000000000000000, 0.0000000000000000000 ) ) ;
#12 = APPLICATION_CONTEXT ( 'automotive_design' ) ;
#13 = LINE ( 'NONE', #15, #5 ) ;
#14 = EDGE_CURVE ( 'NONE', #279, #257, #207, .T. ) ;
#15 = CARTESIAN_POINT ( 'NONE',  ( 0.1136516277932334840, -3.511000800346711873E-17, 0.0000000000000000000 ) ) ;
#16 = EDGE_CURVE ( 'NONE', #237, #279, #197, .T. ) ;
#17 = DIRECTION ( 'NONE',  ( -0.5000000000000002220, 0.8660254037844384856, 0.0000000000000000000 ) ) ;
#18 = DIRECTION ( 'NONE',  ( -0.0000000000000000000, -0.0000000000000000000, -1.000000000000000000 ) ) ;
#19 = CARTESIAN_POINT ( 'NONE',  ( -0.05682581389661671423, -0.09842519685039365085, 0.2500000000000000000 ) ) ;
#20 = FACE_OUTER_BOUND ( 'NONE', #311, .T. ) ;
#21 = DIRECTION ( 'NONE',  ( 0.0000000000000000000, 0.0000000000000000000, 1.000000000000000000 ) ) ;
#22 = ORIENTED_EDGE ( 'NONE', *, *, #54, .T. ) ;
#23 = ORIENTED_EDGE ( 'NONE', *, *, #32, .F. ) ;
#24 = VECTOR ( 'NONE', #152, 39.37007874015748143 ) ;
#25 = AXIS2_PLACEMENT_3D ( 'NONE', #26, #27, #206 ) ;
#26 = CARTESIAN_POINT ( 'NONE',  ( -0.05682581389661671423, -0.09842519685039365085, 0.2500000000000000000 ) ) ;
#27 = DIRECTION ( 'NONE',  ( -3.004629197474316090E-16, 1.000000000000000000, 0.0000000000000000000 ) ) ;
#28 = VECTOR ( 'NONE', #118, 39.37007874015748143 ) ;
#29 = VECTOR ( 'NONE', #123, 39.37007874015748143 ) ;
#30 =( GEOMETRIC_REPRESENTATION_CONTEXT ( 3 ) GLOBAL_UNCERTAINTY_ASSIGNED_CONTEXT ( ( #85 ) ) GLOBAL_UNIT_ASSIGNED_CONTEXT ( ( #92, #90, #89 ) ) REPRESENTATION_CONTEXT ( 'NONE', 'WORKASPACE' ) );
#31 = VECTOR ( 'NONE', #133, 39.37007874015748854 ) ;
#32 = EDGE_CURVE ( 'NONE', #295, #76, #192, .T. ) ;
#33 = VECTOR ( 'NONE', #139, 39.37007874015748143 ) ;
#34 = EDGE_CURVE ( 'NONE', #266, #257, #181, .T. ) ;
#35 = AXIS2_PLACEMENT_3D ( 'NONE', #163, #157, #150 ) ;
#36 = CARTESIAN_POINT ( 'NONE',  ( 0.0000000000000000000, 0.0000000000000000000, 0.2500000000000000000 ) ) ;
#37 = ADVANCED_FACE ( 'NONE', ( #170 ), #168, .T. ) ;
#38 = UNCERTAINTY_MEASURE_WITH_UNIT (LENGTH_MEASURE( 1.000000000000000082E-05 ), #167, 'distance_accuracy_value', 'NONE');
#39 = PRODUCT_DEFINITION_CONTEXT ( 'detailed design', #288, 'design' ) ;
#40 = CARTESIAN_POINT ( 'NONE',  ( 0.0000000000000000000, 0.0000000000000000000, 0.0000000000000000000 ) ) ;
#41 = MECHANICAL_DESIGN_GEOMETRIC_PRESENTATION_REPRESENTATION (  '', ( #67 ), #30 ) ;
#42 = DIRECTION ( 'NONE',  ( 1.000000000000000000, 0.0000000000000000000, 0.0000000000000000000 ) ) ;
#43 = DIRECTION ( 'NONE',  ( 0.0000000000000000000, 0.0000000000000000000, 1.000000000000000000 ) ) ;
#44 = EDGE_CURVE ( 'NONE', #295, #271, #148, .T. ) ;
#45 = CARTESIAN_POINT ( 'NONE',  ( 0.0000000000000000000, 0.0000000000000000000, 0.2500000000000000000 ) ) ;
#46 = CARTESIAN_POINT ( 'NONE',  ( 0.05682581389661667953, 0.09842519685039373412, 0.2500000000000000000 ) ) ;
#47 = AXIS2_PLACEMENT_3D ( 'NONE', #69, #68, #66 ) ;
#48 = FACE_OUTER_BOUND ( 'NONE', #258, .T. ) ;
#49 = PRODUCT_RELATED_PRODUCT_CATEGORY ( 'part', '', ( #52 ) ) ;
#50 = CIRCLE ( 'NONE', #78, 0.3937007874015748254 ) ;
#51 = DIRECTION ( 'NONE',  ( -0.5000000000000001110, 0.8660254037844384856, 0.0000000000000000000 ) ) ;
#52 = PRODUCT ( 'am-4535-250 5mm Hex x 250IN Spacer', 'am-4535-250 5mm Hex x 250IN Spacer', '', ( #127 ) ) ;
#53 = DIRECTION ( 'NONE',  ( 0.8660254037844385966, 0.5000000000000002220, -0.0000000000000000000 ) ) ;
#54 = EDGE_CURVE ( 'NONE', #271, #256, #138, .T. ) ;
#55 = CARTESIAN_POINT ( 'NONE',  ( -0.1136516277932334423, 3.484107800201510529E-17, 0.2500000000000000000 ) ) ;
#56 = AXIS2_PLACEMENT_3D ( 'NONE', #46, #86, #75 ) ;
#57 =( GEOMETRIC_REPRESENTATION_CONTEXT ( 3 ) GLOBAL_UNCERTAINTY_ASSIGNED_CONTEXT ( ( #38 ) ) GLOBAL_UNIT_ASSIGNED_CONTEXT ( ( #167, #166, #164 ) ) REPRESENTATION_CONTEXT ( 'NONE', 'WORKASPACE' ) );
#58 = VECTOR ( 'NONE', #106, 39.37007874015748854 ) ;
#59 = EDGE_CURVE ( 'NONE', #265, #243, #128, .T. ) ;
#60 = PLANE ( 'NONE',  #72 ) ;
#61 = EDGE_CURVE ( 'NONE', #271, #254, #120, .T. ) ;
#62 = DIRECTION ( 'NONE',  ( 1.000000000000000000, 0.0000000000000000000, 0.0000000000000000000 ) ) ;
#63 = EDGE_CURVE ( 'NONE', #264, #266, #117, .T. ) ;
#64 = FACE_OUTER_BOUND ( 'NONE', #262, .T. ) ;
#65 = PRESENTATION_LAYER_ASSIGNMENT (  '', '', ( #67 ) ) ;
#66 = DIRECTION ( 'NONE',  ( 1.000000000000000000, 0.0000000000000000000, -0.0000000000000000000 ) ) ;
#67 = STYLED_ITEM ( 'NONE', ( #96 ), #116 ) ;
#68 = DIRECTION ( 'NONE',  ( 0.0000000000000000000, 0.0000000000000000000, 1.000000000000000000 ) ) ;
#69 = CARTESIAN_POINT ( 'NONE',  ( 0.0000000000000000000, 0.0000000000000000000, 0.0000000000000000000 ) ) ;
#70 = PLANE ( 'NONE',  #47 ) ;
#71 = CIRCLE ( 'NONE', #189, 0.3937007874015748254 ) ;
#72 = AXIS2_PLACEMENT_3D ( 'NONE', #55, #53, #51 ) ;
#73 = EDGE_LOOP ( 'NONE', ( #303, #277, #22, #232 ) ) ;
#74 = EDGE_LOOP ( 'NONE', ( #309, #291, #278, #287, #308, #304 ) ) ;
#75 = DIRECTION ( 'NONE',  ( 1.000000000000000000, 1.502314598737159524E-16, 0.0000000000000000000 ) ) ;
#76 = VERTEX_POINT ( 'NONE', #113 ) ;
#77 = FACE_OUTER_BOUND ( 'NONE', #255, .T. ) ;
#78 = AXIS2_PLACEMENT_3D ( 'NONE', #45, #43, #42 ) ;
#79 = UNCERTAINTY_MEASURE_WITH_UNIT (LENGTH_MEASURE( 1.000000000000000082E-05 ), #140, 'distance_accuracy_value', 'NONE');
#80 = VECTOR ( 'NONE', #110, 39.37007874015748854 ) ;
#81 = VECTOR ( 'NONE', #114, 39.37007874015748854 ) ;
#82 = ORIENTED_EDGE ( 'NONE', *, *, #241, .F. ) ;
#83 = DIMENSIONAL_EXPONENTS ( 1.000000000000000000, 0.0000000000000000000, 0.0000000000000000000, 0.0000000000000000000, 0.0000000000000000000, 0.0000000000000000000, 0.0000000000000000000 ) ;
#84 = FACE_BOUND ( 'NONE', #261, .T. ) ;
#85 = UNCERTAINTY_MEASURE_WITH_UNIT (LENGTH_MEASURE( 1.000000000000000082E-05 ), #92, 'distance_accuracy_value', 'NONE');
#86 = DIRECTION ( 'NONE',  ( 1.502314598737159524E-16, -1.000000000000000000, 0.0000000000000000000 ) ) ;
#87 = ADVANCED_BREP_SHAPE_REPRESENTATION ( 'am-4535-250 5mm Hex x 250IN Spacer', ( #116, #91 ), #57 ) ;
#88 = EDGE_LOOP ( 'NONE', ( #274 ) ) ;
#89 =( NAMED_UNIT ( * ) SI_UNIT ( $, .STERADIAN. ) SOLID_ANGLE_UNIT ( ) );
#90 =( NAMED_UNIT ( * ) PLANE_ANGLE_UNIT ( ) SI_UNIT ( $, .RADIAN. ) );
#91 = AXIS2_PLACEMENT_3D ( 'NONE', #134, #132, #129 ) ;
#92 =( CONVERSION_BASED_UNIT ( 'INCH', #94 ) LENGTH_UNIT ( ) NAMED_UNIT ( #121 ) );
#93 = EDGE_CURVE ( 'NONE', #257, #243, #112, .T. ) ;
#94 = LENGTH_MEASURE_WITH_UNIT ( LENGTH_MEASURE( 0.02539999999999999897 ), #95 );
#95 =( LENGTH_UNIT ( ) NAMED_UNIT ( * ) SI_UNIT ( $, .METRE. ) );
#96 = PRESENTATION_STYLE_ASSIGNMENT (( #97 ) ) ;
#97 = SURFACE_STYLE_USAGE ( .BOTH. , #98 ) ;
#98 = SURFACE_SIDE_STYLE ('',( #101 ) ) ;
#99 = EDGE_CURVE ( 'NONE', #265, #295, #109, .T. ) ;
#100 = AXIS2_PLACEMENT_3D ( 'NONE', #219, #213, #209 ) ;
#101 = SURFACE_STYLE_FILL_AREA ( #102 ) ;
#102 = FILL_AREA_STYLE ('',( #103 ) ) ;
#103 = FILL_AREA_STYLE_COLOUR ( '', #3 ) ;
#104 = PLANE ( 'NONE',  #56 ) ;
#105 = VECTOR ( 'NONE', #290, 39.37007874015748143 ) ;
#106 = DIRECTION ( 'NONE',  ( -0.5000000000000002220, 0.8660254037844384856, 0.0000000000000000000 ) ) ;
#107 = PRODUCT_DEFINITION_SHAPE ( 'NONE', 'NONE',  #296 ) ;
#108 = CARTESIAN_POINT ( 'NONE',  ( 0.1136516277932334840, -3.511000800346711873E-17, 0.2500000000000000000 ) ) ;
#109 = LINE ( 'NONE', #108, #58 ) ;
#110 = DIRECTION ( 'NONE',  ( 0.5000000000000001110, 0.8660254037844384856, 0.0000000000000000000 ) ) ;
#111 = CARTESIAN_POINT ( 'NONE',  ( 0.05682581389661680443, -0.09842519685039362309, 0.0000000000000000000 ) ) ;
#112 = LINE ( 'NONE', #111, #80 ) ;
#113 = CARTESIAN_POINT ( 'NONE',  ( 0.05682581389661667953, 0.09842519685039373412, 0.0000000000000000000 ) ) ;
#114 = DIRECTION ( 'NONE',  ( 0.5000000000000001110, -0.8660254037844384856, 0.0000000000000000000 ) ) ;
#115 = CARTESIAN_POINT ( 'NONE',  ( -0.1136516277932334423, 3.484107800201510529E-17, 0.0000000000000000000 ) ) ;
#116 = MANIFOLD_SOLID_BREP ( 'Boss-Extrude1', #190 ) ;
#117 = LINE ( 'NONE', #115, #81 ) ;
#118 = DIRECTION ( 'NONE',  ( -0.0000000000000000000, -0.0000000000000000000, -1.000000000000000000 ) ) ;
#119 = CARTESIAN_POINT ( 'NONE',  ( -0.05682581389661672117, 0.09842519685039372024, 0.2500000000000000000 ) ) ;
#120 = LINE ( 'NONE', #119, #28 ) ;
#121 = DIMENSIONAL_EXPONENTS ( 1.000000000000000000, 0.0000000000000000000, 0.0000000000000000000, 0.0000000000000000000, 0.0000000000000000000, 0.0000000000000000000, 0.0000000000000000000 ) ;
#122 = ADVANCED_FACE ( 'NONE', ( #48 ), #104, .T. ) ;
#123 = DIRECTION ( 'NONE',  ( -0.0000000000000000000, -0.0000000000000000000, -1.000000000000000000 ) ) ;
#124 = CARTESIAN_POINT ( 'NONE',  ( 0.1136516277932334840, -3.511000800346711873E-17, 0.2500000000000000000 ) ) ;
#125 = SHAPE_DEFINITION_REPRESENTATION ( #107, #87 ) ;
#126 = APPLICATION_PROTOCOL_DEFINITION ( 'draft international standard', 'automotive_design', 1998, #288 ) ;
#127 = PRODUCT_CONTEXT ( 'NONE', #12, 'mechanical' ) ;
#128 = LINE ( 'NONE', #124, #29 ) ;
#129 = DIRECTION ( 'NONE',  ( 1.000000000000000000, 0.0000000000000000000, 0.0000000000000000000 ) ) ;
#130 = CARTESIAN_POINT ( 'NONE',  ( 0.05682581389661680443, -0.09842519685039362309, 0.2500000000000000000 ) ) ;
#131 = LINE ( 'NONE', #160, #24 ) ;
#132 = DIRECTION ( 'NONE',  ( 0.0000000000000000000, 0.0000000000000000000, 1.000000000000000000 ) ) ;
#133 = DIRECTION ( 'NONE',  ( -0.5000000000000001110, -0.8660254037844384856, 0.0000000000000000000 ) ) ;
#134 = CARTESIAN_POINT ( 'NONE',  ( 0.0000000000000000000, 0.0000000000000000000, 0.0000000000000000000 ) ) ;
#135 = CARTESIAN_POINT ( 'NONE',  ( -0.05682581389661672117, 0.09842519685039372024, 0.2500000000000000000 ) ) ;
#136 =( NAMED_UNIT ( * ) SI_UNIT ( $, .STERADIAN. ) SOLID_ANGLE_UNIT ( ) );
#137 =( NAMED_UNIT ( * ) PLANE_ANGLE_UNIT ( ) SI_UNIT ( $, .RADIAN. ) );
#138 = LINE ( 'NONE', #135, #31 ) ;
#139 = DIRECTION ( 'NONE',  ( -1.000000000000000000, -1.502314598737159524E-16, 0.0000000000000000000 ) ) ;
#140 =( CONVERSION_BASED_UNIT ( 'INCH', #141 ) LENGTH_UNIT ( ) NAMED_UNIT ( #83 ) );
#141 = LENGTH_MEASURE_WITH_UNIT ( LENGTH_MEASURE( 0.02539999999999999897 ), #142 );
#142 =( LENGTH_UNIT ( ) NAMED_UNIT ( * ) SI_UNIT ( $, .METRE. ) );
#143 = CARTESIAN_POINT ( 'NONE',  ( 0.05682581389661667953, 0.09842519685039373412, 0.2500000000000000000 ) ) ;
#144 = CARTESIAN_POINT ( 'NONE',  ( -0.05682581389661671423, -0.09842519685039365085, 0.0000000000000000000 ) ) ;
#145 = CARTESIAN_POINT ( 'NONE',  ( -0.05682581389661672117, 0.09842519685039372024, 0.2500000000000000000 ) ) ;
#146 = CARTESIAN_POINT ( 'NONE',  ( -0.1136516277932334423, 3.484107800201510529E-17, 0.0000000000000000000 ) ) ;
#147 = CARTESIAN_POINT ( 'NONE',  ( 0.1136516277932334840, -3.511000800346711873E-17, 0.2500000000000000000 ) ) ;
#148 = LINE ( 'NONE', #143, #33 ) ;
#149 = PRESENTATION_STYLE_ASSIGNMENT (( #154 ) ) ;
#150 = DIRECTION ( 'NONE',  ( -0.5000000000000001110, -0.8660254037844384856, 0.0000000000000000000 ) ) ;
#151 = LINE ( 'NONE', #217, #218 ) ;
#152 = DIRECTION ( 'NONE',  ( -0.0000000000000000000, -0.0000000000000000000, -1.000000000000000000 ) ) ;
#153 = STYLED_ITEM ( 'NONE', ( #149 ), #87 ) ;
#154 = SURFACE_STYLE_USAGE ( .BOTH. , #155 ) ;
#155 = SURFACE_SIDE_STYLE ('',( #156 ) ) ;
#156 = SURFACE_STYLE_FILL_AREA ( #159 ) ;
#157 = DIRECTION ( 'NONE',  ( -0.8660254037844385966, 0.5000000000000002220, 0.0000000000000000000 ) ) ;
#158 = FILL_AREA_STYLE_COLOUR ( '', #269 ) ;
#159 = FILL_AREA_STYLE ('',( #158 ) ) ;
#160 = CARTESIAN_POINT ( 'NONE',  ( -0.1136516277932334423, 3.484107800201510529E-17, 0.2500000000000000000 ) ) ;
#161 = ADVANCED_FACE ( 'NONE', ( #77, #84 ), #70, .F. ) ;
#162 = APPLICATION_PROTOCOL_DEFINITION ( 'draft international standard', 'automotive_design', 1998, #12 ) ;
#163 = CARTESIAN_POINT ( 'NONE',  ( 0.05682581389661680443, -0.09842519685039362309, 0.2500000000000000000 ) ) ;
#164 =( NAMED_UNIT ( * ) SI_UNIT ( $, .STERADIAN. ) SOLID_ANGLE_UNIT ( ) );
#165 = ADVANCED_FACE ( 'NONE', ( #64 ), #60, .T. ) ;
#166 =( NAMED_UNIT ( * ) PLANE_ANGLE_UNIT ( ) SI_UNIT ( $, .RADIAN. ) );
#167 =( CONVERSION_BASED_UNIT ( 'INCH', #169 ) LENGTH_UNIT ( ) NAMED_UNIT ( #253 ) );
#168 = PLANE ( 'NONE',  #35 ) ;
#169 = LENGTH_MEASURE_WITH_UNIT ( LENGTH_MEASURE( 0.02539999999999999897 ), #171 );
#170 = FACE_OUTER_BOUND ( 'NONE', #267, .T. ) ;
#171 =( LENGTH_UNIT ( ) NAMED_UNIT ( * ) SI_UNIT ( $, .METRE. ) );
#172 = CARTESIAN_POINT ( 'NONE',  ( 0.3937007874015748254, 0.0000000000000000000, 0.0000000000000000000 ) ) ;
#173 = DIRECTION ( 'NONE',  ( 1.000000000000000000, 3.004629197474316090E-16, 0.0000000000000000000 ) ) ;
#174 = VERTEX_POINT ( 'NONE', #172 ) ;
#175 = CARTESIAN_POINT ( 'NONE',  ( 0.3937007874015748254, 0.0000000000000000000, 0.2500000000000000000 ) ) ;
#176 = CARTESIAN_POINT ( 'NONE',  ( -0.05682581389661671423, -0.09842519685039365085, 0.0000000000000000000 ) ) ;
#177 = VERTEX_POINT ( 'NONE', #175 ) ;
#178 = DIRECTION ( 'NONE',  ( 0.5000000000000001110, 0.8660254037844384856, 0.0000000000000000000 ) ) ;
#179 = DIRECTION ( 'NONE',  ( 0.8660254037844385966, -0.5000000000000002220, 0.0000000000000000000 ) ) ;
#180 = CARTESIAN_POINT ( 'NONE',  ( -0.05682581389661672117, 0.09842519685039372024, 0.2500000000000000000 ) ) ;
#181 = LINE ( 'NONE', #176, #225 ) ;
#182 = PLANE ( 'NONE',  #272 ) ;
#183 = FACE_OUTER_BOUND ( 'NONE', #73, .T. ) ;
#184 = DIRECTION ( 'NONE',  ( -1.000000000000000000, -1.502314598737159524E-16, 0.0000000000000000000 ) ) ;
#185 = CARTESIAN_POINT ( 'NONE',  ( 0.05682581389661667953, 0.09842519685039373412, 0.0000000000000000000 ) ) ;
#186 = DIRECTION ( 'NONE',  ( -0.0000000000000000000, -0.0000000000000000000, -1.000000000000000000 ) ) ;
#187 = CARTESIAN_POINT ( 'NONE',  ( 0.05682581389661667953, 0.09842519685039373412, 0.2500000000000000000 ) ) ;
#188 = AXIS2_PLACEMENT_3D ( 'NONE', #36, #18, #11 ) ;
#189 = AXIS2_PLACEMENT_3D ( 'NONE', #40, #21, #62 ) ;
#190 = CLOSED_SHELL ( 'NONE', ( #2, #161, #233, #37, #9, #122, #305, #165, #242 ) ) ;
#191 = AXIS2_PLACEMENT_3D ( 'NONE', #224, #223, #222 ) ;
#192 = LINE ( 'NONE', #187, #229 ) ;
#193 = DIRECTION ( 'NONE',  ( 1.000000000000000000, 3.004629197474316090E-16, 0.0000000000000000000 ) ) ;
#194 = CARTESIAN_POINT ( 'NONE',  ( 0.1136516277932334840, -3.511000800346711873E-17, 0.0000000000000000000 ) ) ;
#195 = EDGE_CURVE ( 'NONE', #177, #177, #50, .T. ) ;
#196 = CARTESIAN_POINT ( 'NONE',  ( -0.05682581389661671423, -0.09842519685039365085, 0.2500000000000000000 ) ) ;
#197 = LINE ( 'NONE', #196, #239 ) ;
#198 = LINE ( 'NONE', #185, #260 ) ;
#199 = CARTESIAN_POINT ( 'NONE',  ( -0.05682581389661672117, 0.09842519685039372024, 0.0000000000000000000 ) ) ;
#200 = DIRECTION ( 'NONE',  ( 0.5000000000000001110, 0.8660254037844384856, 0.0000000000000000000 ) ) ;
#201 = DIRECTION ( 'NONE',  ( -0.0000000000000000000, -0.0000000000000000000, -1.000000000000000000 ) ) ;
#202 = CARTESIAN_POINT ( 'NONE',  ( 0.05682581389661680443, -0.09842519685039362309, 0.2500000000000000000 ) ) ;
#203 = LINE ( 'NONE', #202, #7 ) ;
#204 = CARTESIAN_POINT ( 'NONE',  ( 0.05682581389661680443, -0.09842519685039362309, 0.2500000000000000000 ) ) ;
#205 = PRESENTATION_LAYER_ASSIGNMENT (  '', '', ( #153 ) ) ;
#206 = DIRECTION ( 'NONE',  ( -1.000000000000000000, -3.004629197474316090E-16, 0.0000000000000000000 ) ) ;
#207 = LINE ( 'NONE', #204, #244 ) ;
#208 = CARTESIAN_POINT ( 'NONE',  ( 0.05682581389661667953, 0.09842519685039373412, 0.2500000000000000000 ) ) ;
#209 = DIRECTION ( 'NONE',  ( 0.5000000000000002220, -0.8660254037844384856, 0.0000000000000000000 ) ) ;
#210 = CARTESIAN_POINT ( 'NONE',  ( -0.1136516277932334423, 3.484107800201510529E-17, 0.2500000000000000000 ) ) ;
#211 = LINE ( 'NONE', #215, #240 ) ;
#212 = DIRECTION ( 'NONE',  ( 0.5000000000000001110, -0.8660254037844384856, 0.0000000000000000000 ) ) ;
#213 = DIRECTION ( 'NONE',  ( -0.8660254037844385966, -0.5000000000000003331, 0.0000000000000000000 ) ) ;
#214 = CARTESIAN_POINT ( 'NONE',  ( 0.05682581389661680443, -0.09842519685039362309, 0.0000000000000000000 ) ) ;
#215 = CARTESIAN_POINT ( 'NONE',  ( -0.05682581389661672117, 0.09842519685039372024, 0.0000000000000000000 ) ) ;
#216 = DIRECTION ( 'NONE',  ( -0.5000000000000001110, -0.8660254037844384856, 0.0000000000000000000 ) ) ;
#217 = CARTESIAN_POINT ( 'NONE',  ( -0.1136516277932334423, 3.484107800201510529E-17, 0.2500000000000000000 ) ) ;
#218 = VECTOR ( 'NONE', #212, 39.37007874015748854 ) ;
#219 = CARTESIAN_POINT ( 'NONE',  ( 0.1136516277932334840, -3.511000800346711873E-17, 0.2500000000000000000 ) ) ;
#220 = PLANE ( 'NONE',  #100 ) ;
#221 = FACE_OUTER_BOUND ( 'NONE', #276, .T. ) ;
#222 = DIRECTION ( 'NONE',  ( 1.000000000000000000, 0.0000000000000000000, -0.0000000000000000000 ) ) ;
#223 = DIRECTION ( 'NONE',  ( 0.0000000000000000000, 0.0000000000000000000, 1.000000000000000000 ) ) ;
#224 = CARTESIAN_POINT ( 'NONE',  ( 0.0000000000000000000, 0.0000000000000000000, 0.2500000000000000000 ) ) ;
#225 = VECTOR ( 'NONE', #173, 39.37007874015748143 ) ;
#226 = PLANE ( 'NONE',  #191 ) ;
#227 = FACE_BOUND ( 'NONE', #74, .T. ) ;
#228 = FACE_OUTER_BOUND ( 'NONE', #306, .T. ) ;
#229 = VECTOR ( 'NONE', #186, 39.37007874015748143 ) ;
#230 = ORIENTED_EDGE ( 'NONE', *, *, #63, .F. ) ;
#231 = EDGE_CURVE ( 'NONE', #174, #174, #71, .T. ) ;
#232 = ORIENTED_EDGE ( 'NONE', *, *, #286, .T. ) ;
#233 = ADVANCED_FACE ( 'NONE', ( #10, #20 ), #4, .T. ) ;
#234 = EDGE_LOOP ( 'NONE', ( #246, #82, #294, #245 ) ) ;
#235 = EDGE_CURVE ( 'NONE', #243, #76, #13, .T. ) ;
#236 = ORIENTED_EDGE ( 'NONE', *, *, #289, .T. ) ;
#237 = VERTEX_POINT ( 'NONE', #19 ) ;
#238 = ORIENTED_EDGE ( 'NONE', *, *, #286, .F. ) ;
#239 = VECTOR ( 'NONE', #193, 39.37007874015748143 ) ;
#240 = VECTOR ( 'NONE', #216, 39.37007874015748854 ) ;
#241 = EDGE_CURVE ( 'NONE', #237, #266, #1, .T. ) ;
#242 = ADVANCED_FACE ( 'NONE', ( #6 ), #8, .T. ) ;
#243 = VERTEX_POINT ( 'NONE', #194 ) ;
#244 = VECTOR ( 'NONE', #201, 39.37007874015748143 ) ;
#245 = ORIENTED_EDGE ( 'NONE', *, *, #14, .T. ) ;
#246 = ORIENTED_EDGE ( 'NONE', *, *, #34, .F. ) ;
#247 = ORIENTED_EDGE ( 'NONE', *, *, #231, .T. ) ;
#248 = ORIENTED_EDGE ( 'NONE', *, *, #61, .T. ) ;
#249 = ORIENTED_EDGE ( 'NONE', *, *, #298, .T. ) ;
#250 = ORIENTED_EDGE ( 'NONE', *, *, #195, .T. ) ;
#251 = ORIENTED_EDGE ( 'NONE', *, *, #14, .F. ) ;
#252 = ORIENTED_EDGE ( 'NONE', *, *, #59, .T. ) ;
#253 = DIMENSIONAL_EXPONENTS ( 1.000000000000000000, 0.0000000000000000000, 0.0000000000000000000, 0.0000000000000000000, 0.0000000000000000000, 0.0000000000000000000, 0.0000000000000000000 ) ;
#254 = VERTEX_POINT ( 'NONE', #199 ) ;
#255 = EDGE_LOOP ( 'NONE', ( #297 ) ) ;
#256 = VERTEX_POINT ( 'NONE', #210 ) ;
#257 = VERTEX_POINT ( 'NONE', #214 ) ;
#258 = EDGE_LOOP ( 'NONE', ( #283, #23, #275, #248 ) ) ;
#259 = PRODUCT_DEFINITION_FORMATION_WITH_SPECIFIED_SOURCE ( 'ANY', '', #52, .NOT_KNOWN. ) ;
#260 = VECTOR ( 'NONE', #184, 39.37007874015748143 ) ;
#261 = EDGE_LOOP ( 'NONE', ( #293, #307, #299, #292, #280, #273 ) ) ;
#262 = EDGE_LOOP ( 'NONE', ( #230, #238, #236, #300 ) ) ;
#263 = EDGE_CURVE ( 'NONE', #254, #264, #211, .T. ) ;
#264 = VERTEX_POINT ( 'NONE', #146 ) ;
#265 = VERTEX_POINT ( 'NONE', #147 ) ;
#266 = VERTEX_POINT ( 'NONE', #144 ) ;
#267 = EDGE_LOOP ( 'NONE', ( #268, #251, #249, #252 ) ) ;
#268 = ORIENTED_EDGE ( 'NONE', *, *, #93, .F. ) ;
#269 = COLOUR_RGB ( '',0.2509803921568627416, 0.2509803921568627416, 0.2509803921568627416 ) ;
#270 =( GEOMETRIC_REPRESENTATION_CONTEXT ( 3 ) GLOBAL_UNCERTAINTY_ASSIGNED_CONTEXT ( ( #79 ) ) GLOBAL_UNIT_ASSIGNED_CONTEXT ( ( #140, #137, #136 ) ) REPRESENTATION_CONTEXT ( 'NONE', 'WORKASPACE' ) );
#271 = VERTEX_POINT ( 'NONE', #145 ) ;
#272 = AXIS2_PLACEMENT_3D ( 'NONE', #180, #179, #178 ) ;
#273 = ORIENTED_EDGE ( 'NONE', *, *, #34, .T. ) ;
#274 = ORIENTED_EDGE ( 'NONE', *, *, #195, .F. ) ;
#275 = ORIENTED_EDGE ( 'NONE', *, *, #44, .T. ) ;
#276 = EDGE_LOOP ( 'NONE', ( #281, #282, #310, #284 ) ) ;
#277 = ORIENTED_EDGE ( 'NONE', *, *, #61, .F. ) ;
#278 = ORIENTED_EDGE ( 'NONE', *, *, #16, .F. ) ;
#279 = VERTEX_POINT ( 'NONE', #130 ) ;
#280 = ORIENTED_EDGE ( 'NONE', *, *, #63, .T. ) ;
#281 = ORIENTED_EDGE ( 'NONE', *, *, #235, .F. ) ;
#282 = ORIENTED_EDGE ( 'NONE', *, *, #59, .F. ) ;
#283 = ORIENTED_EDGE ( 'NONE', *, *, #301, .F. ) ;
#284 = ORIENTED_EDGE ( 'NONE', *, *, #32, .T. ) ;
#285 = CARTESIAN_POINT ( 'NONE',  ( -0.05682581389661671423, -0.09842519685039365085, 0.2500000000000000000 ) ) ;
#286 = EDGE_CURVE ( 'NONE', #256, #264, #131, .T. ) ;
#287 = ORIENTED_EDGE ( 'NONE', *, *, #289, .F. ) ;
#288 = APPLICATION_CONTEXT ( 'automotive_design' ) ;
#289 = EDGE_CURVE ( 'NONE', #256, #237, #151, .T. ) ;
#290 = DIRECTION ( 'NONE',  ( -0.0000000000000000000, -0.0000000000000000000, -1.000000000000000000 ) ) ;
#291 = ORIENTED_EDGE ( 'NONE', *, *, #298, .F. ) ;
#292 = ORIENTED_EDGE ( 'NONE', *, *, #263, .T. ) ;
#293 = ORIENTED_EDGE ( 'NONE', *, *, #93, .T. ) ;
#294 = ORIENTED_EDGE ( 'NONE', *, *, #16, .T. ) ;
#295 = VERTEX_POINT ( 'NONE', #208 ) ;
#296 = PRODUCT_DEFINITION ( 'UNKNOWN', '', #259, #39 ) ;
#297 = ORIENTED_EDGE ( 'NONE', *, *, #231, .F. ) ;
#298 = EDGE_CURVE ( 'NONE', #279, #265, #203, .T. ) ;
#299 = ORIENTED_EDGE ( 'NONE', *, *, #301, .T. ) ;
#300 = ORIENTED_EDGE ( 'NONE', *, *, #241, .T. ) ;
#301 = EDGE_CURVE ( 'NONE', #76, #254, #198, .T. ) ;
#302 = MECHANICAL_DESIGN_GEOMETRIC_PRESENTATION_REPRESENTATION (  '', ( #153 ), #270 ) ;
#303 = ORIENTED_EDGE ( 'NONE', *, *, #263, .F. ) ;
#304 = ORIENTED_EDGE ( 'NONE', *, *, #44, .F. ) ;
#305 = ADVANCED_FACE ( 'NONE', ( #183 ), #182, .T. ) ;
#306 = EDGE_LOOP ( 'NONE', ( #250 ) ) ;
#307 = ORIENTED_EDGE ( 'NONE', *, *, #235, .T. ) ;
#308 = ORIENTED_EDGE ( 'NONE', *, *, #54, .F. ) ;
#309 = ORIENTED_EDGE ( 'NONE', *, *, #99, .F. ) ;
#310 = ORIENTED_EDGE ( 'NONE', *, *, #99, .T. ) ;
#311 = EDGE_LOOP ( 'NONE', ( #247 ) ) ;
ENDSEC;
END-ISO-10303-21;
