ISO-10303-21;
HEADER;
FILE_DESCRIPTION (( 'STEP AP214' ),
    '1' );
FILE_NAME ('am-4535-375 5mm Hex x 375IN Spacer.STEP',
    '2021-02-26T21:26:32',
    ( '' ),
    ( '' ),
    'SwSTEP 2.0',
    'SolidWorks 2019',
    '' );
FILE_SCHEMA (( 'AUTOMOTIVE_DESIGN' ));
ENDSEC;

DATA;
#1 = DIRECTION ( 'NONE',  ( 1.000000000000000000, 0.0000000000000000000, 0.0000000000000000000 ) ) ;
#2 = EDGE_CURVE ( 'NONE', #218, #250, #202, .T. ) ;
#3 = EDGE_CURVE ( 'NONE', #228, #309, #196, .T. ) ;
#4 = CARTESIAN_POINT ( 'NONE',  ( 0.05682581389661680443, -0.09842519685039362309, 0.3750000000000000555 ) ) ;
#5 = CARTESIAN_POINT ( 'NONE',  ( 0.05682581389661680443, -0.09842519685039362309, 0.3750000000000000555 ) ) ;
#6 = FACE_OUTER_BOUND ( 'NONE', #217, .T. ) ;
#7 = ADVANCED_FACE ( 'NONE', ( #192 ), #191, .T. ) ;
#8 = CARTESIAN_POINT ( 'NONE',  ( -0.1136516277932334423, 3.484107800201510529E-17, 0.3750000000000000555 ) ) ;
#9 = EDGE_CURVE ( 'NONE', #240, #20, #184, .T. ) ;
#10 = LINE ( 'NONE', #11, #296 ) ;
#11 = CARTESIAN_POINT ( 'NONE',  ( -0.05682581389661672117, 0.09842519685039372024, 0.0000000000000000000 ) ) ;
#12 = DIRECTION ( 'NONE',  ( -0.5000000000000001110, -0.8660254037844384856, 0.0000000000000000000 ) ) ;
#13 = DIRECTION ( 'NONE',  ( -0.5000000000000002220, -0.8660254037844383745, 0.0000000000000000000 ) ) ;
#14 = CARTESIAN_POINT ( 'NONE',  ( 0.05682581389661667953, 0.09842519685039373412, 0.3750000000000000555 ) ) ;
#15 = PLANE ( 'NONE',  #242 ) ;
#16 = CARTESIAN_POINT ( 'NONE',  ( 0.05682581389661667953, 0.09842519685039373412, 0.3750000000000000555 ) ) ;
#17 = CARTESIAN_POINT ( 'NONE',  ( -0.05682581389661672117, 0.09842519685039372024, 0.0000000000000000000 ) ) ;
#18 = PRODUCT_DEFINITION_CONTEXT ( 'detailed design', #50, 'design' ) ;
#19 = CARTESIAN_POINT ( 'NONE',  ( 0.05682581389661667953, 0.09842519685039373412, 0.0000000000000000000 ) ) ;
#20 = VERTEX_POINT ( 'NONE', #176 ) ;
#21 = MECHANICAL_DESIGN_GEOMETRIC_PRESENTATION_REPRESENTATION (  '', ( #223 ), #243 ) ;
#22 = ORIENTED_EDGE ( 'NONE', *, *, #194, .T. ) ;
#23 = DIRECTION ( 'NONE',  ( -0.8660254037844384856, 0.5000000000000003331, 0.0000000000000000000 ) ) ;
#24 = VECTOR ( 'NONE', #193, 39.37007874015748854 ) ;
#25 = PRODUCT_DEFINITION_FORMATION_WITH_SPECIFIED_SOURCE ( 'ANY', '', #246, .NOT_KNOWN. ) ;
#26 = AXIS2_PLACEMENT_3D ( 'NONE', #113, #111, #107 ) ;
#27 = LINE ( 'NONE', #16, #249 ) ;
#28 = EDGE_CURVE ( 'NONE', #235, #279, #175, .T. ) ;
#29 = CARTESIAN_POINT ( 'NONE',  ( 0.1136516277932334840, -3.511000800346711873E-17, 0.3750000000000000555 ) ) ;
#30 = UNCERTAINTY_MEASURE_WITH_UNIT (LENGTH_MEASURE( 1.000000000000000082E-05 ), #146, 'distance_accuracy_value', 'NONE');
#31 = CARTESIAN_POINT ( 'NONE',  ( -0.05682581389661672117, 0.09842519685039372024, 0.3750000000000000555 ) ) ;
#32 = VECTOR ( 'NONE', #47, 39.37007874015748854 ) ;
#33 = EDGE_LOOP ( 'NONE', ( #289 ) ) ;
#34 = DIRECTION ( 'NONE',  ( -1.000000000000000000, -1.502314598737159524E-16, 0.0000000000000000000 ) ) ;
#35 = LENGTH_MEASURE_WITH_UNIT ( LENGTH_MEASURE( 0.02539999999999999897 ), #66 );
#36 = APPLICATION_CONTEXT ( 'automotive_design' ) ;
#37 = CARTESIAN_POINT ( 'NONE',  ( 0.1136516277932334840, -3.511000800346711873E-17, 0.3750000000000000555 ) ) ;
#38 = DIRECTION ( 'NONE',  ( -0.5000000000000002220, 0.8660254037844384856, 0.0000000000000000000 ) ) ;
#39 = CARTESIAN_POINT ( 'NONE',  ( 0.1136516277932334840, -3.511000800346711873E-17, 0.0000000000000000000 ) ) ;
#40 = CARTESIAN_POINT ( 'NONE',  ( -0.05682581389661672117, 0.09842519685039372024, 0.3750000000000000555 ) ) ;
#41 = ADVANCED_FACE ( 'NONE', ( #172 ), #167, .T. ) ;
#42 = LINE ( 'NONE', #40, #32 ) ;
#43 = VECTOR ( 'NONE', #86, 39.37007874015748143 ) ;
#44 = DIRECTION ( 'NONE',  ( 1.000000000000000000, 0.0000000000000000000, 0.0000000000000000000 ) ) ;
#45 = AXIS2_PLACEMENT_3D ( 'NONE', #162, #159, #153 ) ;
#46 = DIRECTION ( 'NONE',  ( 0.0000000000000000000, 0.0000000000000000000, 1.000000000000000000 ) ) ;
#47 = DIRECTION ( 'NONE',  ( -0.5000000000000001110, -0.8660254037844384856, 0.0000000000000000000 ) ) ;
#48 = LINE ( 'NONE', #37, #301 ) ;
#49 = PRESENTATION_LAYER_ASSIGNMENT (  '', '', ( #273 ) ) ;
#50 = APPLICATION_CONTEXT ( 'automotive_design' ) ;
#51 = ADVANCED_FACE ( 'NONE', ( #150 ), #144, .T. ) ;
#52 =( NAMED_UNIT ( * ) SI_UNIT ( $, .STERADIAN. ) SOLID_ANGLE_UNIT ( ) );
#53 =( GEOMETRIC_REPRESENTATION_CONTEXT ( 3 ) GLOBAL_UNCERTAINTY_ASSIGNED_CONTEXT ( ( #81 ) ) GLOBAL_UNIT_ASSIGNED_CONTEXT ( ( #120, #142, #122 ) ) REPRESENTATION_CONTEXT ( 'NONE', 'WORKASPACE' ) );
#54 = EDGE_CURVE ( 'NONE', #231, #250, #133, .T. ) ;
#55 = VECTOR ( 'NONE', #136, 39.37007874015748143 ) ;
#56 = PRODUCT_DEFINITION ( 'UNKNOWN', '', #25, #18 ) ;
#57 = ADVANCED_FACE ( 'NONE', ( #118, #115 ), #112, .T. ) ;
#58 = EDGE_CURVE ( 'NONE', #279, #20, #101, .T. ) ;
#59 = ADVANCED_FACE ( 'NONE', ( #98, #97 ), #96, .F. ) ;
#60 = AXIS2_PLACEMENT_3D ( 'NONE', #95, #93, #92 ) ;
#61 = EDGE_CURVE ( 'NONE', #219, #245, #91, .T. ) ;
#62 = UNCERTAINTY_MEASURE_WITH_UNIT (LENGTH_MEASURE( 1.000000000000000082E-05 ), #64, 'distance_accuracy_value', 'NONE');
#63 = DIRECTION ( 'NONE',  ( 0.0000000000000000000, 0.0000000000000000000, 1.000000000000000000 ) ) ;
#64 =( CONVERSION_BASED_UNIT ( 'INCH', #35 ) LENGTH_UNIT ( ) NAMED_UNIT ( #203 ) );
#65 =( NAMED_UNIT ( * ) PLANE_ANGLE_UNIT ( ) SI_UNIT ( $, .RADIAN. ) );
#66 =( LENGTH_UNIT ( ) NAMED_UNIT ( * ) SI_UNIT ( $, .METRE. ) );
#67 = PRESENTATION_STYLE_ASSIGNMENT (( #68 ) ) ;
#68 = SURFACE_STYLE_USAGE ( .BOTH. , #69 ) ;
#69 = SURFACE_SIDE_STYLE ('',( #71 ) ) ;
#70 = VECTOR ( 'NONE', #82, 39.37007874015748143 ) ;
#71 = SURFACE_STYLE_FILL_AREA ( #72 ) ;
#72 = FILL_AREA_STYLE ('',( #73 ) ) ;
#73 = FILL_AREA_STYLE_COLOUR ( '', #232 ) ;
#74 = EDGE_CURVE ( 'NONE', #250, #245, #88, .T. ) ;
#75 = CARTESIAN_POINT ( 'NONE',  ( 0.0000000000000000000, 0.0000000000000000000, 0.0000000000000000000 ) ) ;
#76 = DIRECTION ( 'NONE',  ( 0.5000000000000001110, 0.8660254037844384856, 0.0000000000000000000 ) ) ;
#77 = CARTESIAN_POINT ( 'NONE',  ( 0.05682581389661680443, -0.09842519685039362309, 0.3750000000000000555 ) ) ;
#78 = VECTOR ( 'NONE', #199, 39.37007874015748854 ) ;
#79 = EDGE_CURVE ( 'NONE', #221, #218, #84, .T. ) ;
#80 = LINE ( 'NONE', #77, #212 ) ;
#81 = UNCERTAINTY_MEASURE_WITH_UNIT (LENGTH_MEASURE( 1.000000000000000082E-05 ), #120, 'distance_accuracy_value', 'NONE');
#82 = DIRECTION ( 'NONE',  ( -0.0000000000000000000, -0.0000000000000000000, -1.000000000000000000 ) ) ;
#83 = CARTESIAN_POINT ( 'NONE',  ( 0.1136516277932334840, -3.511000800346711873E-17, 0.3750000000000000555 ) ) ;
#84 = LINE ( 'NONE', #83, #70 ) ;
#85 = EDGE_CURVE ( 'NONE', #240, #221, #80, .T. ) ;
#86 = DIRECTION ( 'NONE',  ( -1.000000000000000000, -1.502314598737159524E-16, 0.0000000000000000000 ) ) ;
#87 = CARTESIAN_POINT ( 'NONE',  ( 0.05682581389661667953, 0.09842519685039373412, 0.0000000000000000000 ) ) ;
#88 = LINE ( 'NONE', #87, #43 ) ;
#89 = DIRECTION ( 'NONE',  ( -0.0000000000000000000, -0.0000000000000000000, -1.000000000000000000 ) ) ;
#90 = CARTESIAN_POINT ( 'NONE',  ( -0.05682581389661672117, 0.09842519685039372024, 0.3750000000000000555 ) ) ;
#91 = LINE ( 'NONE', #90, #293 ) ;
#92 = DIRECTION ( 'NONE',  ( 1.000000000000000000, 0.0000000000000000000, -0.0000000000000000000 ) ) ;
#93 = DIRECTION ( 'NONE',  ( 0.0000000000000000000, 0.0000000000000000000, 1.000000000000000000 ) ) ;
#94 = MANIFOLD_SOLID_BREP ( 'Boss-Extrude1', #263 ) ;
#95 = CARTESIAN_POINT ( 'NONE',  ( 0.0000000000000000000, 0.0000000000000000000, 0.0000000000000000000 ) ) ;
#96 = PLANE ( 'NONE',  #60 ) ;
#97 = FACE_BOUND ( 'NONE', #227, .T. ) ;
#98 = FACE_OUTER_BOUND ( 'NONE', #33, .T. ) ;
#99 = DIRECTION ( 'NONE',  ( 1.000000000000000000, 3.004629197474316090E-16, 0.0000000000000000000 ) ) ;
#100 = CARTESIAN_POINT ( 'NONE',  ( -0.05682581389661671423, -0.09842519685039365085, 0.0000000000000000000 ) ) ;
#101 = LINE ( 'NONE', #100, #236 ) ;
#102 = DIRECTION ( 'NONE',  ( -1.000000000000000000, 0.0000000000000000000, 0.0000000000000000000 ) ) ;
#103 = DIRECTION ( 'NONE',  ( -0.0000000000000000000, -0.0000000000000000000, -1.000000000000000000 ) ) ;
#104 = SHAPE_DEFINITION_REPRESENTATION ( #291, #270 ) ;
#105 = APPLICATION_PROTOCOL_DEFINITION ( 'draft international standard', 'automotive_design', 1998, #50 ) ;
#106 = PRODUCT_CONTEXT ( 'NONE', #36, 'mechanical' ) ;
#107 = DIRECTION ( 'NONE',  ( 1.000000000000000000, 0.0000000000000000000, 0.0000000000000000000 ) ) ;
#108 = CARTESIAN_POINT ( 'NONE',  ( 0.0000000000000000000, 0.0000000000000000000, 0.3750000000000000555 ) ) ;
#109 = CARTESIAN_POINT ( 'NONE',  ( -0.05682581389661671423, -0.09842519685039365085, 0.3750000000000000555 ) ) ;
#110 = DIRECTION ( 'NONE',  ( -0.0000000000000000000, -0.0000000000000000000, -1.000000000000000000 ) ) ;
#111 = DIRECTION ( 'NONE',  ( 0.0000000000000000000, 0.0000000000000000000, 1.000000000000000000 ) ) ;
#112 = CYLINDRICAL_SURFACE ( 'NONE', #268, 0.3937007874015748254 ) ;
#113 = CARTESIAN_POINT ( 'NONE',  ( 0.0000000000000000000, 0.0000000000000000000, 0.0000000000000000000 ) ) ;
#114 = CARTESIAN_POINT ( 'NONE',  ( -0.05682581389661671423, -0.09842519685039365085, 0.0000000000000000000 ) ) ;
#115 = FACE_OUTER_BOUND ( 'NONE', #230, .T. ) ;
#116 = FACE_OUTER_BOUND ( 'NONE', #237, .T. ) ;
#117 = PLANE ( 'NONE',  #302 ) ;
#118 = FACE_OUTER_BOUND ( 'NONE', #247, .T. ) ;
#119 = EDGE_CURVE ( 'NONE', #154, #154, #198, .T. ) ;
#120 =( CONVERSION_BASED_UNIT ( 'INCH', #121 ) LENGTH_UNIT ( ) NAMED_UNIT ( #213 ) );
#121 = LENGTH_MEASURE_WITH_UNIT ( LENGTH_MEASURE( 0.02539999999999999897 ), #125 );
#122 =( NAMED_UNIT ( * ) SI_UNIT ( $, .STERADIAN. ) SOLID_ANGLE_UNIT ( ) );
#123 = PRESENTATION_LAYER_ASSIGNMENT (  '', '', ( #223 ) ) ;
#124 = DIRECTION ( 'NONE',  ( -0.0000000000000000000, -0.0000000000000000000, -1.000000000000000000 ) ) ;
#125 =( LENGTH_UNIT ( ) NAMED_UNIT ( * ) SI_UNIT ( $, .METRE. ) );
#126 = CARTESIAN_POINT ( 'NONE',  ( 0.05682581389661667953, 0.09842519685039373412, 0.3750000000000000555 ) ) ;
#127 = PRESENTATION_STYLE_ASSIGNMENT (( #128 ) ) ;
#128 = SURFACE_STYLE_USAGE ( .BOTH. , #129 ) ;
#129 = SURFACE_SIDE_STYLE ('',( #130 ) ) ;
#130 = SURFACE_STYLE_FILL_AREA ( #131 ) ;
#131 = FILL_AREA_STYLE ('',( #132 ) ) ;
#132 = FILL_AREA_STYLE_COLOUR ( '', #277 ) ;
#133 = LINE ( 'NONE', #126, #200 ) ;
#134 = DIRECTION ( 'NONE',  ( 0.5000000000000003331, -0.8660254037844383745, 0.0000000000000000000 ) ) ;
#135 = APPLICATION_PROTOCOL_DEFINITION ( 'draft international standard', 'automotive_design', 1998, #36 ) ;
#136 = DIRECTION ( 'NONE',  ( 1.000000000000000000, 3.004629197474316090E-16, 0.0000000000000000000 ) ) ;
#137 = DIRECTION ( 'NONE',  ( -0.8660254037844384856, -0.5000000000000004441, 0.0000000000000000000 ) ) ;
#138 = CARTESIAN_POINT ( 'NONE',  ( -0.05682581389661671423, -0.09842519685039365085, 0.3750000000000000555 ) ) ;
#139 = LINE ( 'NONE', #138, #55 ) ;
#140 = LINE ( 'NONE', #109, #287 ) ;
#141 = CARTESIAN_POINT ( 'NONE',  ( 0.1136516277932334840, -3.511000800346711873E-17, 0.3750000000000000555 ) ) ;
#142 =( NAMED_UNIT ( * ) PLANE_ANGLE_UNIT ( ) SI_UNIT ( $, .RADIAN. ) );
#143 =( NAMED_UNIT ( * ) SI_UNIT ( $, .STERADIAN. ) SOLID_ANGLE_UNIT ( ) );
#144 = PLANE ( 'NONE',  #197 ) ;
#145 =( NAMED_UNIT ( * ) PLANE_ANGLE_UNIT ( ) SI_UNIT ( $, .RADIAN. ) );
#146 =( CONVERSION_BASED_UNIT ( 'INCH', #147 ) LENGTH_UNIT ( ) NAMED_UNIT ( #284 ) );
#147 = LENGTH_MEASURE_WITH_UNIT ( LENGTH_MEASURE( 0.02539999999999999897 ), #148 );
#148 =( LENGTH_UNIT ( ) NAMED_UNIT ( * ) SI_UNIT ( $, .METRE. ) );
#149 = CARTESIAN_POINT ( 'NONE',  ( 0.3937007874015748254, 0.0000000000000000000, 0.3750000000000000555 ) ) ;
#150 = FACE_OUTER_BOUND ( 'NONE', #234, .T. ) ;
#151 = VERTEX_POINT ( 'NONE', #149 ) ;
#152 = CARTESIAN_POINT ( 'NONE',  ( 0.3937007874015748254, 0.0000000000000000000, 0.0000000000000000000 ) ) ;
#153 = DIRECTION ( 'NONE',  ( 1.000000000000000000, 1.502314598737159771E-16, 0.0000000000000000000 ) ) ;
#154 = VERTEX_POINT ( 'NONE', #152 ) ;
#155 = DIRECTION ( 'NONE',  ( -0.5000000000000002220, 0.8660254037844383745, 0.0000000000000000000 ) ) ;
#156 = DIRECTION ( 'NONE',  ( 0.8660254037844384856, 0.5000000000000003331, -0.0000000000000000000 ) ) ;
#157 = CARTESIAN_POINT ( 'NONE',  ( -0.1136516277932334423, 3.484107800201510529E-17, 0.3750000000000000555 ) ) ;
#158 = PLANE ( 'NONE',  #288 ) ;
#159 = DIRECTION ( 'NONE',  ( 1.502314598737159771E-16, -1.000000000000000000, 0.0000000000000000000 ) ) ;
#160 = FACE_OUTER_BOUND ( 'NONE', #244, .T. ) ;
#161 = CARTESIAN_POINT ( 'NONE',  ( -0.05682581389661671423, -0.09842519685039365085, 0.3750000000000000555 ) ) ;
#162 = CARTESIAN_POINT ( 'NONE',  ( 0.05682581389661667953, 0.09842519685039373412, 0.3750000000000000555 ) ) ;
#163 = DIRECTION ( 'NONE',  ( 0.5000000000000001110, 0.8660254037844384856, 0.0000000000000000000 ) ) ;
#164 = CARTESIAN_POINT ( 'NONE',  ( 0.05682581389661680443, -0.09842519685039362309, 0.0000000000000000000 ) ) ;
#165 = LINE ( 'NONE', #164, #286 ) ;
#166 = DIRECTION ( 'NONE',  ( 1.000000000000000000, 0.0000000000000000000, -0.0000000000000000000 ) ) ;
#167 = PLANE ( 'NONE',  #45 ) ;
#168 = DIRECTION ( 'NONE',  ( 0.0000000000000000000, 0.0000000000000000000, 1.000000000000000000 ) ) ;
#169 = CARTESIAN_POINT ( 'NONE',  ( 0.0000000000000000000, 0.0000000000000000000, 0.3750000000000000555 ) ) ;
#170 = PLANE ( 'NONE',  #295 ) ;
#171 = FACE_BOUND ( 'NONE', #233, .T. ) ;
#172 = FACE_OUTER_BOUND ( 'NONE', #209, .T. ) ;
#173 = DIRECTION ( 'NONE',  ( 0.5000000000000001110, -0.8660254037844384856, 0.0000000000000000000 ) ) ;
#174 = CARTESIAN_POINT ( 'NONE',  ( -0.1136516277932334423, 3.484107800201510529E-17, 0.0000000000000000000 ) ) ;
#175 = LINE ( 'NONE', #174, #241 ) ;
#176 = CARTESIAN_POINT ( 'NONE',  ( 0.05682581389661680443, -0.09842519685039362309, 0.0000000000000000000 ) ) ;
#177 = EDGE_CURVE ( 'NONE', #219, #228, #42, .T. ) ;
#178 = DIRECTION ( 'NONE',  ( -0.0000000000000000000, -0.0000000000000000000, -1.000000000000000000 ) ) ;
#179 = FACE_OUTER_BOUND ( 'NONE', #226, .T. ) ;
#180 = DIRECTION ( 'NONE',  ( 0.5000000000000002220, 0.8660254037844383745, 0.0000000000000000000 ) ) ;
#181 = CARTESIAN_POINT ( 'NONE',  ( 0.05682581389661680443, -0.09842519685039362309, 0.3750000000000000555 ) ) ;
#182 = LINE ( 'NONE', #190, #307 ) ;
#183 = DIRECTION ( 'NONE',  ( 0.8660254037844384856, -0.5000000000000003331, 0.0000000000000000000 ) ) ;
#184 = LINE ( 'NONE', #181, #224 ) ;
#185 = DIRECTION ( 'NONE',  ( -1.000000000000000000, -3.004629197474316090E-16, 0.0000000000000000000 ) ) ;
#186 = DIRECTION ( 'NONE',  ( -0.0000000000000000000, -0.0000000000000000000, -1.000000000000000000 ) ) ;
#187 = DIRECTION ( 'NONE',  ( -3.004629197474316090E-16, 1.000000000000000000, 0.0000000000000000000 ) ) ;
#188 = CARTESIAN_POINT ( 'NONE',  ( -0.05682581389661672117, 0.09842519685039372024, 0.3750000000000000555 ) ) ;
#189 = CARTESIAN_POINT ( 'NONE',  ( -0.05682581389661671423, -0.09842519685039365085, 0.3750000000000000555 ) ) ;
#190 = CARTESIAN_POINT ( 'NONE',  ( -0.1136516277932334423, 3.484107800201510529E-17, 0.3750000000000000555 ) ) ;
#191 = PLANE ( 'NONE',  #215 ) ;
#192 = FACE_OUTER_BOUND ( 'NONE', #306, .T. ) ;
#193 = DIRECTION ( 'NONE',  ( 0.5000000000000001110, -0.8660254037844384856, 0.0000000000000000000 ) ) ;
#194 = EDGE_CURVE ( 'NONE', #221, #231, #48, .T. ) ;
#195 = CARTESIAN_POINT ( 'NONE',  ( -0.1136516277932334423, 3.484107800201510529E-17, 0.3750000000000000555 ) ) ;
#196 = LINE ( 'NONE', #195, #24 ) ;
#197 = AXIS2_PLACEMENT_3D ( 'NONE', #141, #137, #134 ) ;
#198 = CIRCLE ( 'NONE', #205, 0.3937007874015748254 ) ;
#199 = DIRECTION ( 'NONE',  ( -0.5000000000000002220, 0.8660254037844384856, 0.0000000000000000000 ) ) ;
#200 = VECTOR ( 'NONE', #124, 39.37007874015748143 ) ;
#201 = CARTESIAN_POINT ( 'NONE',  ( 0.1136516277932334840, -3.511000800346711873E-17, 0.0000000000000000000 ) ) ;
#202 = LINE ( 'NONE', #201, #78 ) ;
#203 = DIMENSIONAL_EXPONENTS ( 1.000000000000000000, 0.0000000000000000000, 0.0000000000000000000, 0.0000000000000000000, 0.0000000000000000000, 0.0000000000000000000, 0.0000000000000000000 ) ;
#204 = ORIENTED_EDGE ( 'NONE', *, *, #54, .F. ) ;
#205 = AXIS2_PLACEMENT_3D ( 'NONE', #75, #63, #44 ) ;
#206 = ORIENTED_EDGE ( 'NONE', *, *, #58, .F. ) ;
#207 = ORIENTED_EDGE ( 'NONE', *, *, #275, .F. ) ;
#208 = ORIENTED_EDGE ( 'NONE', *, *, #28, .F. ) ;
#209 = EDGE_LOOP ( 'NONE', ( #281, #204, #304, #282 ) ) ;
#210 = ORIENTED_EDGE ( 'NONE', *, *, #229, .T. ) ;
#211 = ORIENTED_EDGE ( 'NONE', *, *, #9, .F. ) ;
#212 = VECTOR ( 'NONE', #76, 39.37007874015748854 ) ;
#213 = DIMENSIONAL_EXPONENTS ( 1.000000000000000000, 0.0000000000000000000, 0.0000000000000000000, 0.0000000000000000000, 0.0000000000000000000, 0.0000000000000000000, 0.0000000000000000000 ) ;
#214 = ORIENTED_EDGE ( 'NONE', *, *, #267, .F. ) ;
#215 = AXIS2_PLACEMENT_3D ( 'NONE', #189, #187, #185 ) ;
#216 = ORIENTED_EDGE ( 'NONE', *, *, #239, .T. ) ;
#217 = EDGE_LOOP ( 'NONE', ( #259, #211, #256, #253 ) ) ;
#218 = VERTEX_POINT ( 'NONE', #39 ) ;
#219 = VERTEX_POINT ( 'NONE', #31 ) ;
#220 = ORIENTED_EDGE ( 'NONE', *, *, #3, .T. ) ;
#221 = VERTEX_POINT ( 'NONE', #29 ) ;
#222 = EDGE_CURVE ( 'NONE', #231, #219, #27, .T. ) ;
#223 = STYLED_ITEM ( 'NONE', ( #67 ), #94 ) ;
#224 = VECTOR ( 'NONE', #178, 39.37007874015748143 ) ;
#225 = ADVANCED_FACE ( 'NONE', ( #6 ), #15, .T. ) ;
#226 = EDGE_LOOP ( 'NONE', ( #216 ) ) ;
#227 = EDGE_LOOP ( 'NONE', ( #283, #297, #278, #210, #269, #303 ) ) ;
#228 = VERTEX_POINT ( 'NONE', #8 ) ;
#229 = EDGE_CURVE ( 'NONE', #245, #235, #10, .T. ) ;
#230 = EDGE_LOOP ( 'NONE', ( #258 ) ) ;
#231 = VERTEX_POINT ( 'NONE', #14 ) ;
#232 = COLOUR_RGB ( '',0.2509803921568627416, 0.2509803921568627416, 0.2509803921568627416 ) ;
#233 = EDGE_LOOP ( 'NONE', ( #252, #280, #214, #298, #285, #238 ) ) ;
#234 = EDGE_LOOP ( 'NONE', ( #255, #248, #22, #265 ) ) ;
#235 = VERTEX_POINT ( 'NONE', #276 ) ;
#236 = VECTOR ( 'NONE', #99, 39.37007874015748143 ) ;
#237 = EDGE_LOOP ( 'NONE', ( #292, #290, #251, #261 ) ) ;
#238 = ORIENTED_EDGE ( 'NONE', *, *, #222, .F. ) ;
#239 = EDGE_CURVE ( 'NONE', #151, #151, #299, .T. ) ;
#240 = VERTEX_POINT ( 'NONE', #5 ) ;
#241 = VECTOR ( 'NONE', #173, 39.37007874015748854 ) ;
#242 = AXIS2_PLACEMENT_3D ( 'NONE', #4, #23, #13 ) ;
#243 =( GEOMETRIC_REPRESENTATION_CONTEXT ( 3 ) GLOBAL_UNCERTAINTY_ASSIGNED_CONTEXT ( ( #62 ) ) GLOBAL_UNIT_ASSIGNED_CONTEXT ( ( #64, #65, #52 ) ) REPRESENTATION_CONTEXT ( 'NONE', 'WORKASPACE' ) );
#244 = EDGE_LOOP ( 'NONE', ( #208, #310, #220, #264 ) ) ;
#245 = VERTEX_POINT ( 'NONE', #17 ) ;
#246 = PRODUCT ( 'am-4535-375 5mm Hex x 375IN Spacer', 'am-4535-375 5mm Hex x 375IN Spacer', '', ( #106 ) ) ;
#247 = EDGE_LOOP ( 'NONE', ( #262 ) ) ;
#248 = ORIENTED_EDGE ( 'NONE', *, *, #79, .F. ) ;
#249 = VECTOR ( 'NONE', #34, 39.37007874015748143 ) ;
#250 = VERTEX_POINT ( 'NONE', #19 ) ;
#251 = ORIENTED_EDGE ( 'NONE', *, *, #177, .T. ) ;
#252 = ORIENTED_EDGE ( 'NONE', *, *, #194, .F. ) ;
#253 = ORIENTED_EDGE ( 'NONE', *, *, #79, .T. ) ;
#254 = ORIENTED_EDGE ( 'NONE', *, *, #9, .T. ) ;
#255 = ORIENTED_EDGE ( 'NONE', *, *, #2, .F. ) ;
#256 = ORIENTED_EDGE ( 'NONE', *, *, #85, .T. ) ;
#257 = ORIENTED_EDGE ( 'NONE', *, *, #267, .T. ) ;
#258 = ORIENTED_EDGE ( 'NONE', *, *, #119, .T. ) ;
#259 = ORIENTED_EDGE ( 'NONE', *, *, #308, .F. ) ;
#260 = EDGE_CURVE ( 'NONE', #228, #235, #182, .T. ) ;
#261 = ORIENTED_EDGE ( 'NONE', *, *, #260, .T. ) ;
#262 = ORIENTED_EDGE ( 'NONE', *, *, #239, .F. ) ;
#263 = CLOSED_SHELL ( 'NONE', ( #305, #59, #57, #225, #51, #41, #294, #311, #7 ) ) ;
#264 = ORIENTED_EDGE ( 'NONE', *, *, #275, .T. ) ;
#265 = ORIENTED_EDGE ( 'NONE', *, *, #54, .T. ) ;
#266 = CARTESIAN_POINT ( 'NONE',  ( 0.0000000000000000000, 0.0000000000000000000, 0.3750000000000000555 ) ) ;
#267 = EDGE_CURVE ( 'NONE', #309, #240, #139, .T. ) ;
#268 = AXIS2_PLACEMENT_3D ( 'NONE', #108, #103, #102 ) ;
#269 = ORIENTED_EDGE ( 'NONE', *, *, #28, .T. ) ;
#270 = ADVANCED_BREP_SHAPE_REPRESENTATION ( 'am-4535-375 5mm Hex x 375IN Spacer', ( #94, #26 ), #300 ) ;
#271 = AXIS2_PLACEMENT_3D ( 'NONE', #266, #46, #1 ) ;
#272 = MECHANICAL_DESIGN_GEOMETRIC_PRESENTATION_REPRESENTATION (  '', ( #273 ), #53 ) ;
#273 = STYLED_ITEM ( 'NONE', ( #127 ), #270 ) ;
#274 = PRODUCT_RELATED_PRODUCT_CATEGORY ( 'part', '', ( #246 ) ) ;
#275 = EDGE_CURVE ( 'NONE', #309, #279, #140, .T. ) ;
#276 = CARTESIAN_POINT ( 'NONE',  ( -0.1136516277932334423, 3.484107800201510529E-17, 0.0000000000000000000 ) ) ;
#277 = COLOUR_RGB ( '',0.2509803921568627416, 0.2509803921568627416, 0.2509803921568627416 ) ;
#278 = ORIENTED_EDGE ( 'NONE', *, *, #74, .T. ) ;
#279 = VERTEX_POINT ( 'NONE', #114 ) ;
#280 = ORIENTED_EDGE ( 'NONE', *, *, #85, .F. ) ;
#281 = ORIENTED_EDGE ( 'NONE', *, *, #74, .F. ) ;
#282 = ORIENTED_EDGE ( 'NONE', *, *, #61, .T. ) ;
#283 = ORIENTED_EDGE ( 'NONE', *, *, #308, .T. ) ;
#284 = DIMENSIONAL_EXPONENTS ( 1.000000000000000000, 0.0000000000000000000, 0.0000000000000000000, 0.0000000000000000000, 0.0000000000000000000, 0.0000000000000000000, 0.0000000000000000000 ) ;
#285 = ORIENTED_EDGE ( 'NONE', *, *, #177, .F. ) ;
#286 = VECTOR ( 'NONE', #163, 39.37007874015748854 ) ;
#287 = VECTOR ( 'NONE', #110, 39.37007874015748143 ) ;
#288 = AXIS2_PLACEMENT_3D ( 'NONE', #157, #156, #155 ) ;
#289 = ORIENTED_EDGE ( 'NONE', *, *, #119, .F. ) ;
#290 = ORIENTED_EDGE ( 'NONE', *, *, #61, .F. ) ;
#291 = PRODUCT_DEFINITION_SHAPE ( 'NONE', 'NONE',  #56 ) ;
#292 = ORIENTED_EDGE ( 'NONE', *, *, #229, .F. ) ;
#293 = VECTOR ( 'NONE', #89, 39.37007874015748143 ) ;
#294 = ADVANCED_FACE ( 'NONE', ( #116 ), #117, .T. ) ;
#295 = AXIS2_PLACEMENT_3D ( 'NONE', #169, #168, #166 ) ;
#296 = VECTOR ( 'NONE', #12, 39.37007874015748854 ) ;
#297 = ORIENTED_EDGE ( 'NONE', *, *, #2, .T. ) ;
#298 = ORIENTED_EDGE ( 'NONE', *, *, #3, .F. ) ;
#299 = CIRCLE ( 'NONE', #271, 0.3937007874015748254 ) ;
#300 =( GEOMETRIC_REPRESENTATION_CONTEXT ( 3 ) GLOBAL_UNCERTAINTY_ASSIGNED_CONTEXT ( ( #30 ) ) GLOBAL_UNIT_ASSIGNED_CONTEXT ( ( #146, #145, #143 ) ) REPRESENTATION_CONTEXT ( 'NONE', 'WORKASPACE' ) );
#301 = VECTOR ( 'NONE', #38, 39.37007874015748854 ) ;
#302 = AXIS2_PLACEMENT_3D ( 'NONE', #188, #183, #180 ) ;
#303 = ORIENTED_EDGE ( 'NONE', *, *, #58, .T. ) ;
#304 = ORIENTED_EDGE ( 'NONE', *, *, #222, .T. ) ;
#305 = ADVANCED_FACE ( 'NONE', ( #179, #171 ), #170, .T. ) ;
#306 = EDGE_LOOP ( 'NONE', ( #206, #207, #257, #254 ) ) ;
#307 = VECTOR ( 'NONE', #186, 39.37007874015748143 ) ;
#308 = EDGE_CURVE ( 'NONE', #20, #218, #165, .T. ) ;
#309 = VERTEX_POINT ( 'NONE', #161 ) ;
#310 = ORIENTED_EDGE ( 'NONE', *, *, #260, .F. ) ;
#311 = ADVANCED_FACE ( 'NONE', ( #160 ), #158, .T. ) ;
ENDSEC;
END-ISO-10303-21;
