ISO-10303-21;
HEADER;
FILE_DESCRIPTION (( 'STEP AP214' ),
    '1' );
FILE_NAME ('am-4535-500 5mm Hex x 500IN Spacer.STEP',
    '2021-02-26T21:25:32',
    ( '' ),
    ( '' ),
    'SwSTEP 2.0',
    'SolidWorks 2019',
    '' );
FILE_SCHEMA (( 'AUTOMOTIVE_DESIGN' ));
ENDSEC;

DATA;
#1 = ORIENTED_EDGE ( 'NONE', *, *, #74, .F. ) ;
#2 = EDGE_LOOP ( 'NONE', ( #245, #231, #274, #293 ) ) ;
#3 = VECTOR ( 'NONE', #173, 39.37007874015748143 ) ;
#4 = ORIENTED_EDGE ( 'NONE', *, *, #62, .T. ) ;
#5 = CARTESIAN_POINT ( 'NONE',  ( 0.0000000000000000000, 0.0000000000000000000, 0.5000000000000000000 ) ) ;
#6 = DIRECTION ( 'NONE',  ( -0.5000000000000001110, -0.8660254037844384856, 0.0000000000000000000 ) ) ;
#7 = FACE_OUTER_BOUND ( 'NONE', #249, .T. ) ;
#8 = PLANE ( 'NONE',  #77 ) ;
#9 = EDGE_CURVE ( 'NONE', #252, #264, #224, .T. ) ;
#10 = CARTESIAN_POINT ( 'NONE',  ( -0.1136516277932334423, 3.484107800201510529E-17, 0.5000000000000000000 ) ) ;
#11 = CARTESIAN_POINT ( 'NONE',  ( -0.05682581389661672117, 0.09842519685039372024, 0.5000000000000000000 ) ) ;
#12 = DIRECTION ( 'NONE',  ( 0.8660254037844385966, 0.5000000000000002220, -0.0000000000000000000 ) ) ;
#13 = DIRECTION ( 'NONE',  ( -0.0000000000000000000, -0.0000000000000000000, -1.000000000000000000 ) ) ;
#14 = FACE_OUTER_BOUND ( 'NONE', #261, .T. ) ;
#15 = CARTESIAN_POINT ( 'NONE',  ( -0.05682581389661671423, -0.09842519685039365085, 0.0000000000000000000 ) ) ;
#16 = FACE_OUTER_BOUND ( 'NONE', #259, .T. ) ;
#17 = EDGE_CURVE ( 'NONE', #264, #240, #220, .T. ) ;
#18 = LINE ( 'NONE', #11, #197 ) ;
#19 = FACE_OUTER_BOUND ( 'NONE', #248, .T. ) ;
#20 = DIRECTION ( 'NONE',  ( -0.5000000000000002220, 0.8660254037844384856, 0.0000000000000000000 ) ) ;
#21 = ADVANCED_BREP_SHAPE_REPRESENTATION ( 'am-4535-500 5mm Hex x 500IN Spacer', ( #102, #212 ), #125 ) ;
#22 = CARTESIAN_POINT ( 'NONE',  ( 0.1136516277932334840, -3.511000800346711873E-17, 0.5000000000000000000 ) ) ;
#23 = DIRECTION ( 'NONE',  ( -0.0000000000000000000, -0.0000000000000000000, -1.000000000000000000 ) ) ;
#24 = CARTESIAN_POINT ( 'NONE',  ( 0.05682581389661667953, 0.09842519685039373412, 0.5000000000000000000 ) ) ;
#25 = LINE ( 'NONE', #24, #29 ) ;
#26 = DIRECTION ( 'NONE',  ( 1.000000000000000000, 3.004629197474316090E-16, 0.0000000000000000000 ) ) ;
#27 = EDGE_CURVE ( 'NONE', #264, #246, #216, .T. ) ;
#28 =( NAMED_UNIT ( * ) SI_UNIT ( $, .STERADIAN. ) SOLID_ANGLE_UNIT ( ) );
#29 = VECTOR ( 'NONE', #23, 39.37007874015748143 ) ;
#30 =( NAMED_UNIT ( * ) PLANE_ANGLE_UNIT ( ) SI_UNIT ( $, .RADIAN. ) );
#31 = EDGE_CURVE ( 'NONE', #269, #240, #213, .T. ) ;
#32 = EDGE_CURVE ( 'NONE', #167, #167, #46, .T. ) ;
#33 = CARTESIAN_POINT ( 'NONE',  ( -0.05682581389661671423, -0.09842519685039365085, 0.0000000000000000000 ) ) ;
#34 = DIRECTION ( 'NONE',  ( -0.5000000000000001110, 0.8660254037844384856, 0.0000000000000000000 ) ) ;
#35 = EDGE_CURVE ( 'NONE', #271, #269, #200, .T. ) ;
#36 = APPLICATION_CONTEXT ( 'automotive_design' ) ;
#37 = EDGE_CURVE ( 'NONE', #232, #260, #193, .T. ) ;
#38 = EDGE_CURVE ( 'NONE', #66, #260, #190, .T. ) ;
#39 =( CONVERSION_BASED_UNIT ( 'INCH', #40 ) LENGTH_UNIT ( ) NAMED_UNIT ( #59 ) );
#40 = LENGTH_MEASURE_WITH_UNIT ( LENGTH_MEASURE( 0.02539999999999999897 ), #52 );
#41 = ORIENTED_EDGE ( 'NONE', *, *, #32, .F. ) ;
#42 = EDGE_CURVE ( 'NONE', #254, #271, #181, .T. ) ;
#43 = ORIENTED_EDGE ( 'NONE', *, *, #44, .F. ) ;
#44 = EDGE_CURVE ( 'NONE', #247, #255, #165, .T. ) ;
#45 = AXIS2_PLACEMENT_3D ( 'NONE', #141, #195, #186 ) ;
#46 = CIRCLE ( 'NONE', #70, 0.3937007874015748254 ) ;
#47 = EDGE_CURVE ( 'NONE', #163, #163, #223, .T. ) ;
#48 = VECTOR ( 'NONE', #20, 39.37007874015748854 ) ;
#49 = EDGE_LOOP ( 'NONE', ( #235, #297, #275, #288, #301, #43 ) ) ;
#50 = VECTOR ( 'NONE', #221, 39.37007874015748854 ) ;
#51 = AXIS2_PLACEMENT_3D ( 'NONE', #92, #90, #88 ) ;
#52 =( LENGTH_UNIT ( ) NAMED_UNIT ( * ) SI_UNIT ( $, .METRE. ) );
#53 = CARTESIAN_POINT ( 'NONE',  ( 0.1136516277932334840, -3.511000800346711873E-17, 0.5000000000000000000 ) ) ;
#54 =( GEOMETRIC_REPRESENTATION_CONTEXT ( 3 ) GLOBAL_UNCERTAINTY_ASSIGNED_CONTEXT ( ( #253 ) ) GLOBAL_UNIT_ASSIGNED_CONTEXT ( ( #39, #30, #28 ) ) REPRESENTATION_CONTEXT ( 'NONE', 'WORKASPACE' ) );
#55 = ADVANCED_FACE ( 'NONE', ( #138 ), #130, .T. ) ;
#56 = EDGE_CURVE ( 'NONE', #260, #254, #115, .T. ) ;
#57 = VECTOR ( 'NONE', #155, 39.37007874015748143 ) ;
#58 = PRESENTATION_STYLE_ASSIGNMENT (( #60 ) ) ;
#59 = DIMENSIONAL_EXPONENTS ( 1.000000000000000000, 0.0000000000000000000, 0.0000000000000000000, 0.0000000000000000000, 0.0000000000000000000, 0.0000000000000000000, 0.0000000000000000000 ) ;
#60 = SURFACE_STYLE_USAGE ( .BOTH. , #61 ) ;
#61 = SURFACE_SIDE_STYLE ('',( #63 ) ) ;
#62 = EDGE_CURVE ( 'NONE', #246, #232, #106, .T. ) ;
#63 = SURFACE_STYLE_FILL_AREA ( #67 ) ;
#64 = MECHANICAL_DESIGN_GEOMETRIC_PRESENTATION_REPRESENTATION (  '', ( #98 ), #54 ) ;
#65 = ADVANCED_FACE ( 'NONE', ( #103 ), #101, .T. ) ;
#66 = VERTEX_POINT ( 'NONE', #96 ) ;
#67 = FILL_AREA_STYLE ('',( #68 ) ) ;
#68 = FILL_AREA_STYLE_COLOUR ( '', #234 ) ;
#69 = LINE ( 'NONE', #22, #48 ) ;
#70 = AXIS2_PLACEMENT_3D ( 'NONE', #208, #207, #205 ) ;
#71 = PRODUCT_DEFINITION_SHAPE ( 'NONE', 'NONE',  #149 ) ;
#72 = DIRECTION ( 'NONE',  ( 1.000000000000000000, 0.0000000000000000000, -0.0000000000000000000 ) ) ;
#73 = APPLICATION_CONTEXT ( 'automotive_design' ) ;
#74 = EDGE_CURVE ( 'NONE', #246, #66, #95, .T. ) ;
#75 = DIRECTION ( 'NONE',  ( 0.0000000000000000000, 0.0000000000000000000, 1.000000000000000000 ) ) ;
#76 = CARTESIAN_POINT ( 'NONE',  ( 0.0000000000000000000, 0.0000000000000000000, 0.5000000000000000000 ) ) ;
#77 = AXIS2_PLACEMENT_3D ( 'NONE', #10, #12, #34 ) ;
#78 = PLANE ( 'NONE',  #300 ) ;
#79 = FACE_BOUND ( 'NONE', #49, .T. ) ;
#80 = FACE_OUTER_BOUND ( 'NONE', #239, .T. ) ;
#81 = PRESENTATION_LAYER_ASSIGNMENT (  '', '', ( #98 ) ) ;
#82 = AXIS2_PLACEMENT_3D ( 'NONE', #194, #203, #137 ) ;
#83 = DIRECTION ( 'NONE',  ( -0.0000000000000000000, -0.0000000000000000000, -1.000000000000000000 ) ) ;
#84 = ADVANCED_FACE ( 'NONE', ( #279 ), #265, .T. ) ;
#85 = CARTESIAN_POINT ( 'NONE',  ( -0.1136516277932334423, 3.484107800201510529E-17, 0.5000000000000000000 ) ) ;
#86 = LINE ( 'NONE', #85, #204 ) ;
#87 = DIMENSIONAL_EXPONENTS ( 1.000000000000000000, 0.0000000000000000000, 0.0000000000000000000, 0.0000000000000000000, 0.0000000000000000000, 0.0000000000000000000, 0.0000000000000000000 ) ;
#88 = DIRECTION ( 'NONE',  ( 0.5000000000000002220, -0.8660254037844384856, 0.0000000000000000000 ) ) ;
#89 = EDGE_CURVE ( 'NONE', #252, #269, #86, .T. ) ;
#90 = DIRECTION ( 'NONE',  ( -0.8660254037844385966, -0.5000000000000003331, 0.0000000000000000000 ) ) ;
#91 = ADVANCED_FACE ( 'NONE', ( #80, #79 ), #78, .T. ) ;
#92 = CARTESIAN_POINT ( 'NONE',  ( 0.1136516277932334840, -3.511000800346711873E-17, 0.5000000000000000000 ) ) ;
#93 = DIRECTION ( 'NONE',  ( -0.0000000000000000000, -0.0000000000000000000, -1.000000000000000000 ) ) ;
#94 = CARTESIAN_POINT ( 'NONE',  ( 0.05682581389661680443, -0.09842519685039362309, 0.5000000000000000000 ) ) ;
#95 = LINE ( 'NONE', #94, #290 ) ;
#96 = CARTESIAN_POINT ( 'NONE',  ( 0.05682581389661680443, -0.09842519685039362309, 0.0000000000000000000 ) ) ;
#97 = DIRECTION ( 'NONE',  ( -0.5000000000000001110, -0.8660254037844384856, 0.0000000000000000000 ) ) ;
#98 = STYLED_ITEM ( 'NONE', ( #58 ), #102 ) ;
#99 = DIRECTION ( 'NONE',  ( -0.8660254037844385966, 0.5000000000000002220, 0.0000000000000000000 ) ) ;
#100 = CARTESIAN_POINT ( 'NONE',  ( 0.05682581389661680443, -0.09842519685039362309, 0.5000000000000000000 ) ) ;
#101 = PLANE ( 'NONE',  #285 ) ;
#102 = MANIFOLD_SOLID_BREP ( 'Boss-Extrude1', #227 ) ;
#103 = FACE_OUTER_BOUND ( 'NONE', #243, .T. ) ;
#104 = DIRECTION ( 'NONE',  ( 0.5000000000000001110, 0.8660254037844384856, 0.0000000000000000000 ) ) ;
#105 = CARTESIAN_POINT ( 'NONE',  ( 0.05682581389661680443, -0.09842519685039362309, 0.5000000000000000000 ) ) ;
#106 = LINE ( 'NONE', #105, #206 ) ;
#107 = UNCERTAINTY_MEASURE_WITH_UNIT (LENGTH_MEASURE( 1.000000000000000082E-05 ), #123, 'distance_accuracy_value', 'NONE');
#108 = DIRECTION ( 'NONE',  ( -0.5000000000000002220, 0.8660254037844384856, 0.0000000000000000000 ) ) ;
#109 = PRODUCT_CONTEXT ( 'NONE', #36, 'mechanical' ) ;
#110 = DIRECTION ( 'NONE',  ( 1.000000000000000000, 0.0000000000000000000, 0.0000000000000000000 ) ) ;
#111 = DIRECTION ( 'NONE',  ( 0.0000000000000000000, 0.0000000000000000000, 1.000000000000000000 ) ) ;
#112 = CARTESIAN_POINT ( 'NONE',  ( 0.0000000000000000000, 0.0000000000000000000, 0.0000000000000000000 ) ) ;
#113 = CARTESIAN_POINT ( 'NONE',  ( 0.1136516277932334840, -3.511000800346711873E-17, 0.0000000000000000000 ) ) ;
#114 = CARTESIAN_POINT ( 'NONE',  ( 0.05682581389661680443, -0.09842519685039362309, 0.5000000000000000000 ) ) ;
#115 = LINE ( 'NONE', #113, #159 ) ;
#116 = CARTESIAN_POINT ( 'NONE',  ( 0.05682581389661667953, 0.09842519685039373412, 0.5000000000000000000 ) ) ;
#117 = SHAPE_DEFINITION_REPRESENTATION ( #71, #21 ) ;
#118 = APPLICATION_PROTOCOL_DEFINITION ( 'draft international standard', 'automotive_design', 1998, #73 ) ;
#119 = PRESENTATION_LAYER_ASSIGNMENT (  '', '', ( #280 ) ) ;
#120 = DIRECTION ( 'NONE',  ( -1.000000000000000000, -3.004629197474316090E-16, 0.0000000000000000000 ) ) ;
#121 = DIRECTION ( 'NONE',  ( -3.004629197474316090E-16, 1.000000000000000000, 0.0000000000000000000 ) ) ;
#122 =( NAMED_UNIT ( * ) SI_UNIT ( $, .STERADIAN. ) SOLID_ANGLE_UNIT ( ) );
#123 =( CONVERSION_BASED_UNIT ( 'INCH', #127 ) LENGTH_UNIT ( ) NAMED_UNIT ( #182 ) );
#124 = EDGE_CURVE ( 'NONE', #247, #254, #25, .T. ) ;
#125 =( GEOMETRIC_REPRESENTATION_CONTEXT ( 3 ) GLOBAL_UNCERTAINTY_ASSIGNED_CONTEXT ( ( #283 ) ) GLOBAL_UNIT_ASSIGNED_CONTEXT ( ( #156, #154, #153 ) ) REPRESENTATION_CONTEXT ( 'NONE', 'WORKASPACE' ) );
#126 =( NAMED_UNIT ( * ) PLANE_ANGLE_UNIT ( ) SI_UNIT ( $, .RADIAN. ) );
#127 = LENGTH_MEASURE_WITH_UNIT ( LENGTH_MEASURE( 0.02539999999999999897 ), #128 );
#128 =( LENGTH_UNIT ( ) NAMED_UNIT ( * ) SI_UNIT ( $, .METRE. ) );
#129 = CARTESIAN_POINT ( 'NONE',  ( -0.05682581389661671423, -0.09842519685039365085, 0.5000000000000000000 ) ) ;
#130 = PLANE ( 'NONE',  #169 ) ;
#131 = EDGE_CURVE ( 'NONE', #232, #247, #69, .T. ) ;
#132 = PRESENTATION_STYLE_ASSIGNMENT (( #133 ) ) ;
#133 = SURFACE_STYLE_USAGE ( .BOTH. , #134 ) ;
#134 = SURFACE_SIDE_STYLE ('',( #140 ) ) ;
#135 = CARTESIAN_POINT ( 'NONE',  ( -0.05682581389661672117, 0.09842519685039372024, 0.5000000000000000000 ) ) ;
#136 = DIRECTION ( 'NONE',  ( -0.0000000000000000000, -0.0000000000000000000, -1.000000000000000000 ) ) ;
#137 = DIRECTION ( 'NONE',  ( 1.000000000000000000, 1.502314598737159524E-16, 0.0000000000000000000 ) ) ;
#138 = FACE_OUTER_BOUND ( 'NONE', #256, .T. ) ;
#139 = LINE ( 'NONE', #135, #237 ) ;
#140 = SURFACE_STYLE_FILL_AREA ( #148 ) ;
#141 = CARTESIAN_POINT ( 'NONE',  ( -0.05682581389661672117, 0.09842519685039372024, 0.5000000000000000000 ) ) ;
#142 = PLANE ( 'NONE',  #45 ) ;
#143 = DIRECTION ( 'NONE',  ( 1.000000000000000000, 0.0000000000000000000, 0.0000000000000000000 ) ) ;
#144 = VECTOR ( 'NONE', #196, 39.37007874015748854 ) ;
#145 = FACE_OUTER_BOUND ( 'NONE', #2, .T. ) ;
#146 = DIRECTION ( 'NONE',  ( 0.0000000000000000000, 0.0000000000000000000, 1.000000000000000000 ) ) ;
#147 = FILL_AREA_STYLE_COLOUR ( '', #258 ) ;
#148 = FILL_AREA_STYLE ('',( #147 ) ) ;
#149 = PRODUCT_DEFINITION ( 'UNKNOWN', '', #211, #270 ) ;
#150 = CARTESIAN_POINT ( 'NONE',  ( 0.0000000000000000000, 0.0000000000000000000, 0.0000000000000000000 ) ) ;
#151 = APPLICATION_PROTOCOL_DEFINITION ( 'draft international standard', 'automotive_design', 1998, #36 ) ;
#152 = ADVANCED_FACE ( 'NONE', ( #19, #14 ), #277, .T. ) ;
#153 =( NAMED_UNIT ( * ) SI_UNIT ( $, .STERADIAN. ) SOLID_ANGLE_UNIT ( ) );
#154 =( NAMED_UNIT ( * ) PLANE_ANGLE_UNIT ( ) SI_UNIT ( $, .RADIAN. ) );
#155 = DIRECTION ( 'NONE',  ( -1.000000000000000000, -1.502314598737159524E-16, 0.0000000000000000000 ) ) ;
#156 =( CONVERSION_BASED_UNIT ( 'INCH', #157 ) LENGTH_UNIT ( ) NAMED_UNIT ( #87 ) );
#157 = LENGTH_MEASURE_WITH_UNIT ( LENGTH_MEASURE( 0.02539999999999999897 ), #158 );
#158 =( LENGTH_UNIT ( ) NAMED_UNIT ( * ) SI_UNIT ( $, .METRE. ) );
#159 = VECTOR ( 'NONE', #108, 39.37007874015748854 ) ;
#160 = CARTESIAN_POINT ( 'NONE',  ( 0.3937007874015748254, 0.0000000000000000000, 0.0000000000000000000 ) ) ;
#161 = CARTESIAN_POINT ( 'NONE',  ( 0.05682581389661667953, 0.09842519685039373412, 0.5000000000000000000 ) ) ;
#162 = MECHANICAL_DESIGN_GEOMETRIC_PRESENTATION_REPRESENTATION (  '', ( #280 ), #230 ) ;
#163 = VERTEX_POINT ( 'NONE', #160 ) ;
#164 = CARTESIAN_POINT ( 'NONE',  ( 0.3937007874015748254, 0.0000000000000000000, 0.5000000000000000000 ) ) ;
#165 = LINE ( 'NONE', #161, #57 ) ;
#166 = AXIS2_PLACEMENT_3D ( 'NONE', #150, #146, #143 ) ;
#167 = VERTEX_POINT ( 'NONE', #164 ) ;
#168 = DIRECTION ( 'NONE',  ( 1.000000000000000000, 0.0000000000000000000, -0.0000000000000000000 ) ) ;
#169 = AXIS2_PLACEMENT_3D ( 'NONE', #129, #121, #120 ) ;
#170 = DIRECTION ( 'NONE',  ( 0.0000000000000000000, 0.0000000000000000000, 1.000000000000000000 ) ) ;
#171 = CARTESIAN_POINT ( 'NONE',  ( 0.0000000000000000000, 0.0000000000000000000, 0.0000000000000000000 ) ) ;
#172 = PLANE ( 'NONE',  #305 ) ;
#173 = DIRECTION ( 'NONE',  ( -1.000000000000000000, -1.502314598737159524E-16, 0.0000000000000000000 ) ) ;
#174 = FACE_BOUND ( 'NONE', #251, .T. ) ;
#175 = FACE_OUTER_BOUND ( 'NONE', #311, .T. ) ;
#176 = CARTESIAN_POINT ( 'NONE',  ( 0.05682581389661667953, 0.09842519685039373412, 0.0000000000000000000 ) ) ;
#177 = CARTESIAN_POINT ( 'NONE',  ( -0.05682581389661672117, 0.09842519685039372024, 0.0000000000000000000 ) ) ;
#178 = CARTESIAN_POINT ( 'NONE',  ( -0.1136516277932334423, 3.484107800201510529E-17, 0.0000000000000000000 ) ) ;
#179 = CARTESIAN_POINT ( 'NONE',  ( -0.05682581389661671423, -0.09842519685039365085, 0.5000000000000000000 ) ) ;
#180 = CARTESIAN_POINT ( 'NONE',  ( 0.1136516277932334840, -3.511000800346711873E-17, 0.0000000000000000000 ) ) ;
#181 = LINE ( 'NONE', #176, #3 ) ;
#182 = DIMENSIONAL_EXPONENTS ( 1.000000000000000000, 0.0000000000000000000, 0.0000000000000000000, 0.0000000000000000000, 0.0000000000000000000, 0.0000000000000000000, 0.0000000000000000000 ) ;
#183 = CARTESIAN_POINT ( 'NONE',  ( -0.05682581389661672117, 0.09842519685039372024, 0.5000000000000000000 ) ) ;
#184 = CARTESIAN_POINT ( 'NONE',  ( 0.05682581389661667953, 0.09842519685039373412, 0.0000000000000000000 ) ) ;
#185 = CARTESIAN_POINT ( 'NONE',  ( -0.1136516277932334423, 3.484107800201510529E-17, 0.5000000000000000000 ) ) ;
#186 = DIRECTION ( 'NONE',  ( 0.5000000000000001110, 0.8660254037844384856, 0.0000000000000000000 ) ) ;
#187 = PRODUCT_RELATED_PRODUCT_CATEGORY ( 'part', '', ( #276 ) ) ;
#188 = DIRECTION ( 'NONE',  ( 0.5000000000000001110, 0.8660254037844384856, 0.0000000000000000000 ) ) ;
#189 = CARTESIAN_POINT ( 'NONE',  ( 0.05682581389661680443, -0.09842519685039362309, 0.0000000000000000000 ) ) ;
#190 = LINE ( 'NONE', #189, #296 ) ;
#191 = DIRECTION ( 'NONE',  ( -0.0000000000000000000, -0.0000000000000000000, -1.000000000000000000 ) ) ;
#192 = CARTESIAN_POINT ( 'NONE',  ( 0.1136516277932334840, -3.511000800346711873E-17, 0.5000000000000000000 ) ) ;
#193 = LINE ( 'NONE', #192, #292 ) ;
#194 = CARTESIAN_POINT ( 'NONE',  ( 0.05682581389661667953, 0.09842519685039373412, 0.5000000000000000000 ) ) ;
#195 = DIRECTION ( 'NONE',  ( 0.8660254037844385966, -0.5000000000000002220, 0.0000000000000000000 ) ) ;
#196 = DIRECTION ( 'NONE',  ( -0.5000000000000001110, -0.8660254037844384856, 0.0000000000000000000 ) ) ;
#197 = VECTOR ( 'NONE', #6, 39.37007874015748854 ) ;
#198 = PLANE ( 'NONE',  #82 ) ;
#199 = CARTESIAN_POINT ( 'NONE',  ( -0.05682581389661672117, 0.09842519685039372024, 0.0000000000000000000 ) ) ;
#200 = LINE ( 'NONE', #199, #144 ) ;
#201 = ORIENTED_EDGE ( 'NONE', *, *, #44, .T. ) ;
#202 = EDGE_CURVE ( 'NONE', #255, #252, #18, .T. ) ;
#203 = DIRECTION ( 'NONE',  ( 1.502314598737159524E-16, -1.000000000000000000, 0.0000000000000000000 ) ) ;
#204 = VECTOR ( 'NONE', #83, 39.37007874015748143 ) ;
#205 = DIRECTION ( 'NONE',  ( 1.000000000000000000, 0.0000000000000000000, 0.0000000000000000000 ) ) ;
#206 = VECTOR ( 'NONE', #104, 39.37007874015748854 ) ;
#207 = DIRECTION ( 'NONE',  ( 0.0000000000000000000, 0.0000000000000000000, 1.000000000000000000 ) ) ;
#208 = CARTESIAN_POINT ( 'NONE',  ( 0.0000000000000000000, 0.0000000000000000000, 0.5000000000000000000 ) ) ;
#209 = DIRECTION ( 'NONE',  ( 0.5000000000000001110, -0.8660254037844384856, 0.0000000000000000000 ) ) ;
#210 = CARTESIAN_POINT ( 'NONE',  ( -0.1136516277932334423, 3.484107800201510529E-17, 0.0000000000000000000 ) ) ;
#211 = PRODUCT_DEFINITION_FORMATION_WITH_SPECIFIED_SOURCE ( 'ANY', '', #276, .NOT_KNOWN. ) ;
#212 = AXIS2_PLACEMENT_3D ( 'NONE', #112, #111, #110 ) ;
#213 = LINE ( 'NONE', #210, #238 ) ;
#214 = DIRECTION ( 'NONE',  ( 1.000000000000000000, 3.004629197474316090E-16, 0.0000000000000000000 ) ) ;
#215 = CARTESIAN_POINT ( 'NONE',  ( -0.05682581389661671423, -0.09842519685039365085, 0.5000000000000000000 ) ) ;
#216 = LINE ( 'NONE', #215, #226 ) ;
#217 = DIRECTION ( 'NONE',  ( -0.0000000000000000000, -0.0000000000000000000, -1.000000000000000000 ) ) ;
#218 = ADVANCED_FACE ( 'NONE', ( #7 ), #8, .T. ) ;
#219 = CARTESIAN_POINT ( 'NONE',  ( -0.05682581389661671423, -0.09842519685039365085, 0.5000000000000000000 ) ) ;
#220 = LINE ( 'NONE', #219, #228 ) ;
#221 = DIRECTION ( 'NONE',  ( 0.5000000000000001110, -0.8660254037844384856, 0.0000000000000000000 ) ) ;
#222 = CARTESIAN_POINT ( 'NONE',  ( -0.1136516277932334423, 3.484107800201510529E-17, 0.5000000000000000000 ) ) ;
#223 = CIRCLE ( 'NONE', #166, 0.3937007874015748254 ) ;
#224 = LINE ( 'NONE', #222, #50 ) ;
#225 = ORIENTED_EDGE ( 'NONE', *, *, #17, .T. ) ;
#226 = VECTOR ( 'NONE', #214, 39.37007874015748143 ) ;
#227 = CLOSED_SHELL ( 'NONE', ( #91, #308, #152, #65, #84, #241, #250, #218, #55 ) ) ;
#228 = VECTOR ( 'NONE', #217, 39.37007874015748143 ) ;
#229 = EDGE_CURVE ( 'NONE', #240, #66, #236, .T. ) ;
#230 =( GEOMETRIC_REPRESENTATION_CONTEXT ( 3 ) GLOBAL_UNCERTAINTY_ASSIGNED_CONTEXT ( ( #107 ) ) GLOBAL_UNIT_ASSIGNED_CONTEXT ( ( #123, #126, #122 ) ) REPRESENTATION_CONTEXT ( 'NONE', 'WORKASPACE' ) );
#231 = ORIENTED_EDGE ( 'NONE', *, *, #244, .F. ) ;
#232 = VERTEX_POINT ( 'NONE', #53 ) ;
#233 = ORIENTED_EDGE ( 'NONE', *, *, #229, .F. ) ;
#234 = COLOUR_RGB ( '',0.2509803921568627416, 0.2509803921568627416, 0.2509803921568627416 ) ;
#235 = ORIENTED_EDGE ( 'NONE', *, *, #131, .F. ) ;
#236 = LINE ( 'NONE', #33, #303 ) ;
#237 = VECTOR ( 'NONE', #136, 39.37007874015748143 ) ;
#238 = VECTOR ( 'NONE', #209, 39.37007874015748854 ) ;
#239 = EDGE_LOOP ( 'NONE', ( #242 ) ) ;
#240 = VERTEX_POINT ( 'NONE', #15 ) ;
#241 = ADVANCED_FACE ( 'NONE', ( #16 ), #198, .T. ) ;
#242 = ORIENTED_EDGE ( 'NONE', *, *, #32, .T. ) ;
#243 = EDGE_LOOP ( 'NONE', ( #291, #1, #4, #267 ) ) ;
#244 = EDGE_CURVE ( 'NONE', #255, #271, #139, .T. ) ;
#245 = ORIENTED_EDGE ( 'NONE', *, *, #35, .F. ) ;
#246 = VERTEX_POINT ( 'NONE', #114 ) ;
#247 = VERTEX_POINT ( 'NONE', #116 ) ;
#248 = EDGE_LOOP ( 'NONE', ( #41 ) ) ;
#249 = EDGE_LOOP ( 'NONE', ( #284, #262, #263, #225 ) ) ;
#250 = ADVANCED_FACE ( 'NONE', ( #145 ), #142, .T. ) ;
#251 = EDGE_LOOP ( 'NONE', ( #294, #287, #307, #295, #289, #278 ) ) ;
#252 = VERTEX_POINT ( 'NONE', #185 ) ;
#253 = UNCERTAINTY_MEASURE_WITH_UNIT (LENGTH_MEASURE( 1.000000000000000082E-05 ), #39, 'distance_accuracy_value', 'NONE');
#254 = VERTEX_POINT ( 'NONE', #184 ) ;
#255 = VERTEX_POINT ( 'NONE', #183 ) ;
#256 = EDGE_LOOP ( 'NONE', ( #233, #282, #309, #304 ) ) ;
#257 = ORIENTED_EDGE ( 'NONE', *, *, #42, .F. ) ;
#258 = COLOUR_RGB ( '',0.2509803921568627416, 0.2509803921568627416, 0.2509803921568627416 ) ;
#259 = EDGE_LOOP ( 'NONE', ( #257, #298, #201, #306 ) ) ;
#260 = VERTEX_POINT ( 'NONE', #180 ) ;
#261 = EDGE_LOOP ( 'NONE', ( #273 ) ) ;
#262 = ORIENTED_EDGE ( 'NONE', *, *, #89, .F. ) ;
#263 = ORIENTED_EDGE ( 'NONE', *, *, #9, .T. ) ;
#264 = VERTEX_POINT ( 'NONE', #179 ) ;
#265 = PLANE ( 'NONE',  #51 ) ;
#266 = EDGE_LOOP ( 'NONE', ( #268, #281, #302, #310 ) ) ;
#267 = ORIENTED_EDGE ( 'NONE', *, *, #37, .T. ) ;
#268 = ORIENTED_EDGE ( 'NONE', *, *, #56, .F. ) ;
#269 = VERTEX_POINT ( 'NONE', #178 ) ;
#270 = PRODUCT_DEFINITION_CONTEXT ( 'detailed design', #73, 'design' ) ;
#271 = VERTEX_POINT ( 'NONE', #177 ) ;
#272 = ORIENTED_EDGE ( 'NONE', *, *, #47, .F. ) ;
#273 = ORIENTED_EDGE ( 'NONE', *, *, #47, .T. ) ;
#274 = ORIENTED_EDGE ( 'NONE', *, *, #202, .T. ) ;
#275 = ORIENTED_EDGE ( 'NONE', *, *, #27, .F. ) ;
#276 = PRODUCT ( 'am-4535-500 5mm Hex x 500IN Spacer', 'am-4535-500 5mm Hex x 500IN Spacer', '', ( #109 ) ) ;
#277 = CYLINDRICAL_SURFACE ( 'NONE', #299, 0.3937007874015748254 ) ;
#278 = ORIENTED_EDGE ( 'NONE', *, *, #229, .T. ) ;
#279 = FACE_OUTER_BOUND ( 'NONE', #266, .T. ) ;
#280 = STYLED_ITEM ( 'NONE', ( #132 ), #21 ) ;
#281 = ORIENTED_EDGE ( 'NONE', *, *, #37, .F. ) ;
#282 = ORIENTED_EDGE ( 'NONE', *, *, #17, .F. ) ;
#283 = UNCERTAINTY_MEASURE_WITH_UNIT (LENGTH_MEASURE( 1.000000000000000082E-05 ), #156, 'distance_accuracy_value', 'NONE');
#284 = ORIENTED_EDGE ( 'NONE', *, *, #31, .F. ) ;
#285 = AXIS2_PLACEMENT_3D ( 'NONE', #100, #99, #97 ) ;
#286 = DIRECTION ( 'NONE',  ( -1.000000000000000000, 0.0000000000000000000, 0.0000000000000000000 ) ) ;
#287 = ORIENTED_EDGE ( 'NONE', *, *, #56, .T. ) ;
#288 = ORIENTED_EDGE ( 'NONE', *, *, #9, .F. ) ;
#289 = ORIENTED_EDGE ( 'NONE', *, *, #31, .T. ) ;
#290 = VECTOR ( 'NONE', #93, 39.37007874015748143 ) ;
#291 = ORIENTED_EDGE ( 'NONE', *, *, #38, .F. ) ;
#292 = VECTOR ( 'NONE', #191, 39.37007874015748143 ) ;
#293 = ORIENTED_EDGE ( 'NONE', *, *, #89, .T. ) ;
#294 = ORIENTED_EDGE ( 'NONE', *, *, #38, .T. ) ;
#295 = ORIENTED_EDGE ( 'NONE', *, *, #35, .T. ) ;
#296 = VECTOR ( 'NONE', #188, 39.37007874015748854 ) ;
#297 = ORIENTED_EDGE ( 'NONE', *, *, #62, .F. ) ;
#298 = ORIENTED_EDGE ( 'NONE', *, *, #124, .F. ) ;
#299 = AXIS2_PLACEMENT_3D ( 'NONE', #5, #13, #286 ) ;
#300 = AXIS2_PLACEMENT_3D ( 'NONE', #76, #75, #72 ) ;
#301 = ORIENTED_EDGE ( 'NONE', *, *, #202, .F. ) ;
#302 = ORIENTED_EDGE ( 'NONE', *, *, #131, .T. ) ;
#303 = VECTOR ( 'NONE', #26, 39.37007874015748143 ) ;
#304 = ORIENTED_EDGE ( 'NONE', *, *, #74, .T. ) ;
#305 = AXIS2_PLACEMENT_3D ( 'NONE', #171, #170, #168 ) ;
#306 = ORIENTED_EDGE ( 'NONE', *, *, #244, .T. ) ;
#307 = ORIENTED_EDGE ( 'NONE', *, *, #42, .T. ) ;
#308 = ADVANCED_FACE ( 'NONE', ( #175, #174 ), #172, .F. ) ;
#309 = ORIENTED_EDGE ( 'NONE', *, *, #27, .T. ) ;
#310 = ORIENTED_EDGE ( 'NONE', *, *, #124, .T. ) ;
#311 = EDGE_LOOP ( 'NONE', ( #272 ) ) ;
ENDSEC;
END-ISO-10303-21;
