ISO-10303-21;
HEADER;
FILE_DESCRIPTION (( 'STEP AP214' ),
    '1' );
FILE_NAME ('am-4535-1000 5mm Hex x 1000IN Spacer.STEP',
    '2021-02-26T21:23:56',
    ( '' ),
    ( '' ),
    'SwSTEP 2.0',
    'SolidWorks 2019',
    '' );
FILE_SCHEMA (( 'AUTOMOTIVE_DESIGN' ));
ENDSEC;

DATA;
#1 = VECTOR ( 'NONE', #51, 39.37007874015748143 ) ;
#2 = CARTESIAN_POINT ( 'NONE',  ( 0.0000000000000000000, 0.0000000000000000000, 1.000000000000000000 ) ) ;
#3 =( NAMED_UNIT ( * ) PLANE_ANGLE_UNIT ( ) SI_UNIT ( $, .RADIAN. ) );
#4 = CARTESIAN_POINT ( 'NONE',  ( -0.05682581389661671423, -0.09842519685039365085, 1.000000000000000000 ) ) ;
#5 = LINE ( 'NONE', #35, #61 ) ;
#6 = PLANE ( 'NONE',  #93 ) ;
#7 = CARTESIAN_POINT ( 'NONE',  ( -0.1136516277932334423, 3.484107800201510529E-17, 1.000000000000000000 ) ) ;
#8 = CARTESIAN_POINT ( 'NONE',  ( 0.05682581389661667953, 0.09842519685039373412, 0.0000000000000000000 ) ) ;
#9 = PRODUCT_DEFINITION_CONTEXT ( 'detailed design', #49, 'design' ) ;
#10 = CARTESIAN_POINT ( 'NONE',  ( 0.05682581389661680443, -0.09842519685039362309, 0.0000000000000000000 ) ) ;
#11 = LINE ( 'NONE', #225, #1 ) ;
#12 = DIRECTION ( 'NONE',  ( 0.8660254037844385966, 0.5000000000000002220, -0.0000000000000000000 ) ) ;
#13 = CARTESIAN_POINT ( 'NONE',  ( -0.05682581389661672117, 0.09842519685039372024, 0.0000000000000000000 ) ) ;
#14 = CARTESIAN_POINT ( 'NONE',  ( -0.1136516277932334423, 3.484107800201510529E-17, 1.000000000000000000 ) ) ;
#15 = DIRECTION ( 'NONE',  ( -0.5000000000000001110, 0.8660254037844384856, 0.0000000000000000000 ) ) ;
#16 = DIRECTION ( 'NONE',  ( 0.5000000000000002220, -0.8660254037844384856, 0.0000000000000000000 ) ) ;
#17 = COLOUR_RGB ( '',0.2509803921568627416, 0.2509803921568627416, 0.2509803921568627416 ) ;
#18 = STYLED_ITEM ( 'NONE', ( #134 ), #297 ) ;
#19 = MECHANICAL_DESIGN_GEOMETRIC_PRESENTATION_REPRESENTATION (  '', ( #18 ), #24 ) ;
#20 = DIRECTION ( 'NONE',  ( 1.000000000000000000, 3.004629197474316090E-16, 0.0000000000000000000 ) ) ;
#21 = CARTESIAN_POINT ( 'NONE',  ( -0.05682581389661671423, -0.09842519685039365085, 1.000000000000000000 ) ) ;
#22 = VECTOR ( 'NONE', #238, 39.37007874015748143 ) ;
#23 = FACE_OUTER_BOUND ( 'NONE', #202, .T. ) ;
#24 =( GEOMETRIC_REPRESENTATION_CONTEXT ( 3 ) GLOBAL_UNCERTAINTY_ASSIGNED_CONTEXT ( ( #115 ) ) GLOBAL_UNIT_ASSIGNED_CONTEXT ( ( #131, #130, #126 ) ) REPRESENTATION_CONTEXT ( 'NONE', 'WORKASPACE' ) );
#25 = AXIS2_PLACEMENT_3D ( 'NONE', #124, #123, #121 ) ;
#26 = DIRECTION ( 'NONE',  ( 1.000000000000000000, 3.004629197474316090E-16, 0.0000000000000000000 ) ) ;
#27 = LINE ( 'NONE', #7, #54 ) ;
#28 = PLANE ( 'NONE',  #105 ) ;
#29 = EDGE_CURVE ( 'NONE', #166, #76, #222, .T. ) ;
#30 = FACE_OUTER_BOUND ( 'NONE', #205, .T. ) ;
#31 = DIRECTION ( 'NONE',  ( 0.5000000000000001110, -0.8660254037844384856, 0.0000000000000000000 ) ) ;
#32 = CARTESIAN_POINT ( 'NONE',  ( 0.1136516277932334840, -3.511000800346711873E-17, 1.000000000000000000 ) ) ;
#33 = VECTOR ( 'NONE', #98, 39.37007874015748854 ) ;
#34 = LINE ( 'NONE', #67, #242 ) ;
#35 = CARTESIAN_POINT ( 'NONE',  ( 0.05682581389661680443, -0.09842519685039362309, 1.000000000000000000 ) ) ;
#36 = CARTESIAN_POINT ( 'NONE',  ( 0.1136516277932334840, -3.511000800346711873E-17, 1.000000000000000000 ) ) ;
#37 = FILL_AREA_STYLE_COLOUR ( '', #276 ) ;
#38 = CARTESIAN_POINT ( 'NONE',  ( 0.1136516277932334840, -3.511000800346711873E-17, 1.000000000000000000 ) ) ;
#39 = DIMENSIONAL_EXPONENTS ( 1.000000000000000000, 0.0000000000000000000, 0.0000000000000000000, 0.0000000000000000000, 0.0000000000000000000, 0.0000000000000000000, 0.0000000000000000000 ) ;
#40 = DIRECTION ( 'NONE',  ( -0.0000000000000000000, -0.0000000000000000000, -1.000000000000000000 ) ) ;
#41 = PRODUCT_DEFINITION_FORMATION_WITH_SPECIFIED_SOURCE ( 'ANY', '', #53, .NOT_KNOWN. ) ;
#42 = ADVANCED_FACE ( 'NONE', ( #228 ), #232, .T. ) ;
#43 = UNCERTAINTY_MEASURE_WITH_UNIT (LENGTH_MEASURE( 1.000000000000000082E-05 ), #150, 'distance_accuracy_value', 'NONE');
#44 = CARTESIAN_POINT ( 'NONE',  ( -0.05682581389661672117, 0.09842519685039372024, 1.000000000000000000 ) ) ;
#45 = CARTESIAN_POINT ( 'NONE',  ( -0.1136516277932334423, 3.484107800201510529E-17, 1.000000000000000000 ) ) ;
#46 = EDGE_CURVE ( 'NONE', #210, #83, #236, .T. ) ;
#47 = EDGE_CURVE ( 'NONE', #82, #208, #239, .T. ) ;
#48 = ADVANCED_FACE ( 'NONE', ( #23 ), #28, .T. ) ;
#49 = APPLICATION_CONTEXT ( 'automotive_design' ) ;
#50 = PRODUCT_RELATED_PRODUCT_CATEGORY ( 'part', '', ( #53 ) ) ;
#51 = DIRECTION ( 'NONE',  ( -0.0000000000000000000, -0.0000000000000000000, -1.000000000000000000 ) ) ;
#52 = LINE ( 'NONE', #109, #281 ) ;
#53 = PRODUCT ( 'am-4535-1000 5mm Hex x 1000IN Spacer', 'am-4535-1000 5mm Hex x 1000IN Spacer', '', ( #120 ) ) ;
#54 = VECTOR ( 'NONE', #31, 39.37007874015748854 ) ;
#55 = DIMENSIONAL_EXPONENTS ( 1.000000000000000000, 0.0000000000000000000, 0.0000000000000000000, 0.0000000000000000000, 0.0000000000000000000, 0.0000000000000000000, 0.0000000000000000000 ) ;
#56 = VECTOR ( 'NONE', #245, 39.37007874015748143 ) ;
#57 = AXIS2_PLACEMENT_3D ( 'NONE', #36, #256, #16 ) ;
#58 = VECTOR ( 'NONE', #250, 39.37007874015748143 ) ;
#59 = PRODUCT_DEFINITION ( 'UNKNOWN', '', #41, #9 ) ;
#60 = VECTOR ( 'NONE', #125, 39.37007874015748143 ) ;
#61 = VECTOR ( 'NONE', #268, 39.37007874015748854 ) ;
#62 = APPLICATION_CONTEXT ( 'automotive_design' ) ;
#63 = CIRCLE ( 'NONE', #64, 0.3937007874015748254 ) ;
#64 = AXIS2_PLACEMENT_3D ( 'NONE', #2, #300, #290 ) ;
#65 = VECTOR ( 'NONE', #181, 39.37007874015748854 ) ;
#66 = PRESENTATION_LAYER_ASSIGNMENT (  '', '', ( #18 ) ) ;
#67 = CARTESIAN_POINT ( 'NONE',  ( -0.05682581389661671423, -0.09842519685039365085, 0.0000000000000000000 ) ) ;
#68 = EDGE_CURVE ( 'NONE', #210, #82, #27, .T. ) ;
#69 = CARTESIAN_POINT ( 'NONE',  ( 0.05682581389661667953, 0.09842519685039373412, 1.000000000000000000 ) ) ;
#70 = VERTEX_POINT ( 'NONE', #13 ) ;
#71 = EDGE_CURVE ( 'NONE', #149, #169, #224, .T. ) ;
#72 = EDGE_LOOP ( 'NONE', ( #77 ) ) ;
#73 = EDGE_CURVE ( 'NONE', #200, #70, #11, .T. ) ;
#74 = ORIENTED_EDGE ( 'NONE', *, *, #217, .F. ) ;
#75 = ADVANCED_FACE ( 'NONE', ( #30 ), #95, .T. ) ;
#76 = VERTEX_POINT ( 'NONE', #8 ) ;
#77 = ORIENTED_EDGE ( 'NONE', *, *, #231, .T. ) ;
#78 = ORIENTED_EDGE ( 'NONE', *, *, #47, .F. ) ;
#79 = EDGE_CURVE ( 'NONE', #201, #149, #34, .T. ) ;
#80 = CARTESIAN_POINT ( 'NONE',  ( -0.05682581389661671423, -0.09842519685039365085, 1.000000000000000000 ) ) ;
#81 = EDGE_LOOP ( 'NONE', ( #90, #203, #78, #87, #85, #74 ) ) ;
#82 = VERTEX_POINT ( 'NONE', #80 ) ;
#83 = VERTEX_POINT ( 'NONE', #211 ) ;
#84 = AXIS2_PLACEMENT_3D ( 'NONE', #174, #175, #177 ) ;
#85 = ORIENTED_EDGE ( 'NONE', *, *, #173, .F. ) ;
#86 = EDGE_CURVE ( 'NONE', #76, #70, #52, .T. ) ;
#87 = ORIENTED_EDGE ( 'NONE', *, *, #68, .F. ) ;
#88 = ORIENTED_EDGE ( 'NONE', *, *, #153, .F. ) ;
#89 = ADVANCED_FACE ( 'NONE', ( #106 ), #275, .T. ) ;
#90 = ORIENTED_EDGE ( 'NONE', *, *, #295, .F. ) ;
#91 = ORIENTED_EDGE ( 'NONE', *, *, #71, .T. ) ;
#92 = ORIENTED_EDGE ( 'NONE', *, *, #303, .T. ) ;
#93 = AXIS2_PLACEMENT_3D ( 'NONE', #251, #253, #277 ) ;
#94 = ORIENTED_EDGE ( 'NONE', *, *, #86, .T. ) ;
#95 = PLANE ( 'NONE',  #254 ) ;
#96 = ORIENTED_EDGE ( 'NONE', *, *, #230, .T. ) ;
#97 = ORIENTED_EDGE ( 'NONE', *, *, #302, .T. ) ;
#98 = DIRECTION ( 'NONE',  ( 0.5000000000000001110, 0.8660254037844384856, 0.0000000000000000000 ) ) ;
#99 = SURFACE_STYLE_FILL_AREA ( #262 ) ;
#100 =( CONVERSION_BASED_UNIT ( 'INCH', #246 ) LENGTH_UNIT ( ) NAMED_UNIT ( #55 ) );
#101 = ORIENTED_EDGE ( 'NONE', *, *, #79, .T. ) ;
#102 = ORIENTED_EDGE ( 'NONE', *, *, #231, .F. ) ;
#103 = ORIENTED_EDGE ( 'NONE', *, *, #153, .T. ) ;
#104 = ORIENTED_EDGE ( 'NONE', *, *, #71, .F. ) ;
#105 = AXIS2_PLACEMENT_3D ( 'NONE', #14, #12, #15 ) ;
#106 = FACE_OUTER_BOUND ( 'NONE', #213, .T. ) ;
#107 = VECTOR ( 'NONE', #310, 39.37007874015748854 ) ;
#108 = VECTOR ( 'NONE', #20, 39.37007874015748143 ) ;
#109 = CARTESIAN_POINT ( 'NONE',  ( 0.05682581389661667953, 0.09842519685039373412, 0.0000000000000000000 ) ) ;
#110 = ORIENTED_EDGE ( 'NONE', *, *, #139, .F. ) ;
#111 = ORIENTED_EDGE ( 'NONE', *, *, #221, .T. ) ;
#112 = ORIENTED_EDGE ( 'NONE', *, *, #199, .T. ) ;
#113 = AXIS2_PLACEMENT_3D ( 'NONE', #161, #160, #159 ) ;
#114 = ORIENTED_EDGE ( 'NONE', *, *, #303, .F. ) ;
#115 = UNCERTAINTY_MEASURE_WITH_UNIT (LENGTH_MEASURE( 1.000000000000000082E-05 ), #131, 'distance_accuracy_value', 'NONE');
#116 = ORIENTED_EDGE ( 'NONE', *, *, #199, .F. ) ;
#117 = ORIENTED_EDGE ( 'NONE', *, *, #295, .T. ) ;
#118 = SHAPE_DEFINITION_REPRESENTATION ( #243, #297 ) ;
#119 = APPLICATION_PROTOCOL_DEFINITION ( 'draft international standard', 'automotive_design', 1998, #49 ) ;
#120 = PRODUCT_CONTEXT ( 'NONE', #62, 'mechanical' ) ;
#121 = DIRECTION ( 'NONE',  ( 1.000000000000000000, 0.0000000000000000000, 0.0000000000000000000 ) ) ;
#122 = ORIENTED_EDGE ( 'NONE', *, *, #29, .T. ) ;
#123 = DIRECTION ( 'NONE',  ( 0.0000000000000000000, 0.0000000000000000000, 1.000000000000000000 ) ) ;
#124 = CARTESIAN_POINT ( 'NONE',  ( 0.0000000000000000000, 0.0000000000000000000, 0.0000000000000000000 ) ) ;
#125 = DIRECTION ( 'NONE',  ( -1.000000000000000000, -1.502314598737159524E-16, 0.0000000000000000000 ) ) ;
#126 =( NAMED_UNIT ( * ) SI_UNIT ( $, .STERADIAN. ) SOLID_ANGLE_UNIT ( ) );
#127 = DIMENSIONAL_EXPONENTS ( 1.000000000000000000, 0.0000000000000000000, 0.0000000000000000000, 0.0000000000000000000, 0.0000000000000000000, 0.0000000000000000000, 0.0000000000000000000 ) ;
#128 = ORIENTED_EDGE ( 'NONE', *, *, #86, .F. ) ;
#129 = ORIENTED_EDGE ( 'NONE', *, *, #29, .F. ) ;
#130 =( NAMED_UNIT ( * ) PLANE_ANGLE_UNIT ( ) SI_UNIT ( $, .RADIAN. ) );
#131 =( CONVERSION_BASED_UNIT ( 'INCH', #132 ) LENGTH_UNIT ( ) NAMED_UNIT ( #127 ) );
#132 = LENGTH_MEASURE_WITH_UNIT ( LENGTH_MEASURE( 0.02539999999999999897 ), #133 );
#133 =( LENGTH_UNIT ( ) NAMED_UNIT ( * ) SI_UNIT ( $, .METRE. ) );
#134 = PRESENTATION_STYLE_ASSIGNMENT (( #136 ) ) ;
#135 = ORIENTED_EDGE ( 'NONE', *, *, #217, .T. ) ;
#136 = SURFACE_STYLE_USAGE ( .BOTH. , #137 ) ;
#137 = SURFACE_SIDE_STYLE ('',( #140 ) ) ;
#138 = ORIENTED_EDGE ( 'NONE', *, *, #73, .T. ) ;
#139 = EDGE_CURVE ( 'NONE', #208, #149, #294, .T. ) ;
#140 = SURFACE_STYLE_FILL_AREA ( #141 ) ;
#141 = FILL_AREA_STYLE ('',( #142 ) ) ;
#142 = FILL_AREA_STYLE_COLOUR ( '', #17 ) ;
#143 = ORIENTED_EDGE ( 'NONE', *, *, #230, .F. ) ;
#144 = APPLICATION_PROTOCOL_DEFINITION ( 'draft international standard', 'automotive_design', 1998, #62 ) ;
#145 = ORIENTED_EDGE ( 'NONE', *, *, #73, .F. ) ;
#146 =( NAMED_UNIT ( * ) SI_UNIT ( $, .STERADIAN. ) SOLID_ANGLE_UNIT ( ) );
#147 = ORIENTED_EDGE ( 'NONE', *, *, #173, .T. ) ;
#148 =( NAMED_UNIT ( * ) PLANE_ANGLE_UNIT ( ) SI_UNIT ( $, .RADIAN. ) );
#149 = VERTEX_POINT ( 'NONE', #227 ) ;
#150 =( CONVERSION_BASED_UNIT ( 'INCH', #151 ) LENGTH_UNIT ( ) NAMED_UNIT ( #39 ) );
#151 = LENGTH_MEASURE_WITH_UNIT ( LENGTH_MEASURE( 0.02539999999999999897 ), #152 );
#152 =( LENGTH_UNIT ( ) NAMED_UNIT ( * ) SI_UNIT ( $, .METRE. ) );
#153 = EDGE_CURVE ( 'NONE', #158, #158, #255, .T. ) ;
#154 = CARTESIAN_POINT ( 'NONE',  ( 0.3937007874015748254, 0.0000000000000000000, 1.000000000000000000 ) ) ;
#155 = VERTEX_POINT ( 'NONE', #154 ) ;
#156 = CARTESIAN_POINT ( 'NONE',  ( 0.05682581389661680443, -0.09842519685039362309, 1.000000000000000000 ) ) ;
#157 = CARTESIAN_POINT ( 'NONE',  ( 0.3937007874015748254, 0.0000000000000000000, 0.0000000000000000000 ) ) ;
#158 = VERTEX_POINT ( 'NONE', #157 ) ;
#159 = DIRECTION ( 'NONE',  ( -1.000000000000000000, 0.0000000000000000000, 0.0000000000000000000 ) ) ;
#160 = DIRECTION ( 'NONE',  ( -0.0000000000000000000, -0.0000000000000000000, -1.000000000000000000 ) ) ;
#161 = CARTESIAN_POINT ( 'NONE',  ( 0.0000000000000000000, 0.0000000000000000000, 1.000000000000000000 ) ) ;
#162 = CYLINDRICAL_SURFACE ( 'NONE', #113, 0.3937007874015748254 ) ;
#163 = FACE_OUTER_BOUND ( 'NONE', #220, .T. ) ;
#164 = FACE_OUTER_BOUND ( 'NONE', #204, .T. ) ;
#165 = DIRECTION ( 'NONE',  ( -0.5000000000000002220, 0.8660254037844384856, 0.0000000000000000000 ) ) ;
#166 = VERTEX_POINT ( 'NONE', #306 ) ;
#167 = CARTESIAN_POINT ( 'NONE',  ( 0.1136516277932334840, -3.511000800346711873E-17, 0.0000000000000000000 ) ) ;
#168 = LINE ( 'NONE', #167, #247 ) ;
#169 = VERTEX_POINT ( 'NONE', #291 ) ;
#170 = DIRECTION ( 'NONE',  ( 0.5000000000000001110, -0.8660254037844384856, 0.0000000000000000000 ) ) ;
#171 = CARTESIAN_POINT ( 'NONE',  ( -0.1136516277932334423, 3.484107800201510529E-17, 0.0000000000000000000 ) ) ;
#172 = PLANE ( 'NONE',  #84 ) ;
#173 = EDGE_CURVE ( 'NONE', #200, #210, #252, .T. ) ;
#174 = CARTESIAN_POINT ( 'NONE',  ( 0.0000000000000000000, 0.0000000000000000000, 1.000000000000000000 ) ) ;
#175 = DIRECTION ( 'NONE',  ( 0.0000000000000000000, 0.0000000000000000000, 1.000000000000000000 ) ) ;
#176 = ORIENTED_EDGE ( 'NONE', *, *, #46, .T. ) ;
#177 = DIRECTION ( 'NONE',  ( 1.000000000000000000, 0.0000000000000000000, -0.0000000000000000000 ) ) ;
#178 = LINE ( 'NONE', #180, #65 ) ;
#179 = ORIENTED_EDGE ( 'NONE', *, *, #302, .F. ) ;
#180 = CARTESIAN_POINT ( 'NONE',  ( 0.1136516277932334840, -3.511000800346711873E-17, 1.000000000000000000 ) ) ;
#181 = DIRECTION ( 'NONE',  ( -0.5000000000000002220, 0.8660254037844384856, 0.0000000000000000000 ) ) ;
#182 = LINE ( 'NONE', #171, #249 ) ;
#183 = FACE_OUTER_BOUND ( 'NONE', #214, .T. ) ;
#184 = ORIENTED_EDGE ( 'NONE', *, *, #46, .F. ) ;
#185 = DIRECTION ( 'NONE',  ( 1.502314598737159524E-16, -1.000000000000000000, 0.0000000000000000000 ) ) ;
#186 = DIRECTION ( 'NONE',  ( 1.000000000000000000, 1.502314598737159524E-16, 0.0000000000000000000 ) ) ;
#187 = FACE_OUTER_BOUND ( 'NONE', #72, .T. ) ;
#188 = FACE_BOUND ( 'NONE', #81, .T. ) ;
#189 = ORIENTED_EDGE ( 'NONE', *, *, #68, .T. ) ;
#190 = ADVANCED_FACE ( 'NONE', ( #282 ), #293, .T. ) ;
#191 = ORIENTED_EDGE ( 'NONE', *, *, #241, .T. ) ;
#192 = ORIENTED_EDGE ( 'NONE', *, *, #79, .F. ) ;
#193 = ORIENTED_EDGE ( 'NONE', *, *, #241, .F. ) ;
#194 = ORIENTED_EDGE ( 'NONE', *, *, #47, .T. ) ;
#195 = DIRECTION ( 'NONE',  ( -1.000000000000000000, -1.502314598737159524E-16, 0.0000000000000000000 ) ) ;
#196 = VECTOR ( 'NONE', #264, 39.37007874015748854 ) ;
#197 = CARTESIAN_POINT ( 'NONE',  ( 0.05682581389661667953, 0.09842519685039373412, 1.000000000000000000 ) ) ;
#198 = ORIENTED_EDGE ( 'NONE', *, *, #139, .T. ) ;
#199 = EDGE_CURVE ( 'NONE', #215, #169, #274, .T. ) ;
#200 = VERTEX_POINT ( 'NONE', #44 ) ;
#201 = VERTEX_POINT ( 'NONE', #311 ) ;
#202 = EDGE_LOOP ( 'NONE', ( #179, #184, #189, #191 ) ) ;
#203 = ORIENTED_EDGE ( 'NONE', *, *, #221, .F. ) ;
#204 = EDGE_LOOP ( 'NONE', ( #102 ) ) ;
#205 = EDGE_LOOP ( 'NONE', ( #104, #110, #111, #112 ) ) ;
#206 = EDGE_LOOP ( 'NONE', ( #91, #92, #94, #96, #97, #101 ) ) ;
#207 = EDGE_LOOP ( 'NONE', ( #143, #145, #147, #176 ) ) ;
#208 = VERTEX_POINT ( 'NONE', #284 ) ;
#209 = UNCERTAINTY_MEASURE_WITH_UNIT (LENGTH_MEASURE( 1.000000000000000082E-05 ), #100, 'distance_accuracy_value', 'NONE');
#210 = VERTEX_POINT ( 'NONE', #45 ) ;
#211 = CARTESIAN_POINT ( 'NONE',  ( -0.1136516277932334423, 3.484107800201510529E-17, 0.0000000000000000000 ) ) ;
#212 = AXIS2_PLACEMENT_3D ( 'NONE', #233, #234, #235 ) ;
#213 = EDGE_LOOP ( 'NONE', ( #192, #193, #194, #198 ) ) ;
#214 = EDGE_LOOP ( 'NONE', ( #128, #129, #135, #138 ) ) ;
#215 = VERTEX_POINT ( 'NONE', #38 ) ;
#216 = EDGE_LOOP ( 'NONE', ( #114, #116, #117, #122 ) ) ;
#217 = EDGE_CURVE ( 'NONE', #166, #200, #229, .T. ) ;
#218 = EDGE_LOOP ( 'NONE', ( #88 ) ) ;
#219 = DIRECTION ( 'NONE',  ( -0.5000000000000001110, -0.8660254037844384856, 0.0000000000000000000 ) ) ;
#220 = EDGE_LOOP ( 'NONE', ( #103 ) ) ;
#221 = EDGE_CURVE ( 'NONE', #208, #215, #5, .T. ) ;
#222 = LINE ( 'NONE', #223, #305 ) ;
#223 = CARTESIAN_POINT ( 'NONE',  ( 0.05682581389661667953, 0.09842519685039373412, 1.000000000000000000 ) ) ;
#224 = LINE ( 'NONE', #10, #33 ) ;
#225 = CARTESIAN_POINT ( 'NONE',  ( -0.05682581389661672117, 0.09842519685039372024, 1.000000000000000000 ) ) ;
#226 = DIRECTION ( 'NONE',  ( -0.0000000000000000000, -0.0000000000000000000, -1.000000000000000000 ) ) ;
#227 = CARTESIAN_POINT ( 'NONE',  ( 0.05682581389661680443, -0.09842519685039362309, 0.0000000000000000000 ) ) ;
#228 = FACE_OUTER_BOUND ( 'NONE', #207, .T. ) ;
#229 = LINE ( 'NONE', #69, #60 ) ;
#230 = EDGE_CURVE ( 'NONE', #70, #83, #301, .T. ) ;
#231 = EDGE_CURVE ( 'NONE', #155, #155, #63, .T. ) ;
#232 = PLANE ( 'NONE',  #212 ) ;
#233 = CARTESIAN_POINT ( 'NONE',  ( -0.05682581389661672117, 0.09842519685039372024, 1.000000000000000000 ) ) ;
#234 = DIRECTION ( 'NONE',  ( 0.8660254037844385966, -0.5000000000000002220, 0.0000000000000000000 ) ) ;
#235 = DIRECTION ( 'NONE',  ( 0.5000000000000001110, 0.8660254037844384856, 0.0000000000000000000 ) ) ;
#236 = LINE ( 'NONE', #237, #22 ) ;
#237 = CARTESIAN_POINT ( 'NONE',  ( -0.1136516277932334423, 3.484107800201510529E-17, 1.000000000000000000 ) ) ;
#238 = DIRECTION ( 'NONE',  ( -0.0000000000000000000, -0.0000000000000000000, -1.000000000000000000 ) ) ;
#239 = LINE ( 'NONE', #21, #108 ) ;
#240 = ADVANCED_FACE ( 'NONE', ( #280, #257 ), #6, .F. ) ;
#241 = EDGE_CURVE ( 'NONE', #82, #201, #258, .T. ) ;
#242 = VECTOR ( 'NONE', #26, 39.37007874015748143 ) ;
#243 = PRODUCT_DEFINITION_SHAPE ( 'NONE', 'NONE',  #59 ) ;
#244 =( GEOMETRIC_REPRESENTATION_CONTEXT ( 3 ) GLOBAL_UNCERTAINTY_ASSIGNED_CONTEXT ( ( #43 ) ) GLOBAL_UNIT_ASSIGNED_CONTEXT ( ( #150, #148, #146 ) ) REPRESENTATION_CONTEXT ( 'NONE', 'WORKASPACE' ) );
#245 = DIRECTION ( 'NONE',  ( -0.0000000000000000000, -0.0000000000000000000, -1.000000000000000000 ) ) ;
#246 = LENGTH_MEASURE_WITH_UNIT ( LENGTH_MEASURE( 0.02539999999999999897 ), #260 );
#247 = VECTOR ( 'NONE', #165, 39.37007874015748854 ) ;
#248 =( NAMED_UNIT ( * ) SI_UNIT ( $, .STERADIAN. ) SOLID_ANGLE_UNIT ( ) );
#249 = VECTOR ( 'NONE', #170, 39.37007874015748854 ) ;
#250 = DIRECTION ( 'NONE',  ( -0.0000000000000000000, -0.0000000000000000000, -1.000000000000000000 ) ) ;
#251 = CARTESIAN_POINT ( 'NONE',  ( 0.0000000000000000000, 0.0000000000000000000, 0.0000000000000000000 ) ) ;
#252 = LINE ( 'NONE', #289, #196 ) ;
#253 = DIRECTION ( 'NONE',  ( 0.0000000000000000000, 0.0000000000000000000, 1.000000000000000000 ) ) ;
#254 = AXIS2_PLACEMENT_3D ( 'NONE', #156, #292, #219 ) ;
#255 = CIRCLE ( 'NONE', #283, 0.3937007874015748254 ) ;
#256 = DIRECTION ( 'NONE',  ( -0.8660254037844385966, -0.5000000000000003331, 0.0000000000000000000 ) ) ;
#257 = FACE_BOUND ( 'NONE', #206, .T. ) ;
#258 = LINE ( 'NONE', #271, #278 ) ;
#259 = AXIS2_PLACEMENT_3D ( 'NONE', #197, #185, #186 ) ;
#260 =( LENGTH_UNIT ( ) NAMED_UNIT ( * ) SI_UNIT ( $, .METRE. ) );
#261 = MANIFOLD_SOLID_BREP ( 'Boss-Extrude1', #296 ) ;
#262 = FILL_AREA_STYLE ('',( #37 ) ) ;
#263 =( GEOMETRIC_REPRESENTATION_CONTEXT ( 3 ) GLOBAL_UNCERTAINTY_ASSIGNED_CONTEXT ( ( #209 ) ) GLOBAL_UNIT_ASSIGNED_CONTEXT ( ( #100, #3, #248 ) ) REPRESENTATION_CONTEXT ( 'NONE', 'WORKASPACE' ) );
#264 = DIRECTION ( 'NONE',  ( -0.5000000000000001110, -0.8660254037844384856, 0.0000000000000000000 ) ) ;
#265 = SURFACE_STYLE_USAGE ( .BOTH. , #285 ) ;
#266 = CARTESIAN_POINT ( 'NONE',  ( 0.0000000000000000000, 0.0000000000000000000, 0.0000000000000000000 ) ) ;
#267 = ADVANCED_FACE ( 'NONE', ( #183 ), #279, .T. ) ;
#268 = DIRECTION ( 'NONE',  ( 0.5000000000000001110, 0.8660254037844384856, 0.0000000000000000000 ) ) ;
#269 = AXIS2_PLACEMENT_3D ( 'NONE', #4, #298, #309 ) ;
#270 = STYLED_ITEM ( 'NONE', ( #288 ), #261 ) ;
#271 = CARTESIAN_POINT ( 'NONE',  ( -0.05682581389661671423, -0.09842519685039365085, 1.000000000000000000 ) ) ;
#272 = PRESENTATION_LAYER_ASSIGNMENT (  '', '', ( #270 ) ) ;
#273 = MECHANICAL_DESIGN_GEOMETRIC_PRESENTATION_REPRESENTATION (  '', ( #270 ), #263 ) ;
#274 = LINE ( 'NONE', #32, #58 ) ;
#275 = PLANE ( 'NONE',  #269 ) ;
#276 = COLOUR_RGB ( '',0.2509803921568627416, 0.2509803921568627416, 0.2509803921568627416 ) ;
#277 = DIRECTION ( 'NONE',  ( 1.000000000000000000, 0.0000000000000000000, -0.0000000000000000000 ) ) ;
#278 = VECTOR ( 'NONE', #40, 39.37007874015748143 ) ;
#279 = PLANE ( 'NONE',  #259 ) ;
#280 = FACE_OUTER_BOUND ( 'NONE', #218, .T. ) ;
#281 = VECTOR ( 'NONE', #195, 39.37007874015748143 ) ;
#282 = FACE_OUTER_BOUND ( 'NONE', #216, .T. ) ;
#283 = AXIS2_PLACEMENT_3D ( 'NONE', #266, #308, #299 ) ;
#284 = CARTESIAN_POINT ( 'NONE',  ( 0.05682581389661680443, -0.09842519685039362309, 1.000000000000000000 ) ) ;
#285 = SURFACE_SIDE_STYLE ('',( #99 ) ) ;
#286 = ADVANCED_FACE ( 'NONE', ( #187, #188 ), #172, .T. ) ;
#287 = CARTESIAN_POINT ( 'NONE',  ( -0.05682581389661672117, 0.09842519685039372024, 0.0000000000000000000 ) ) ;
#288 = PRESENTATION_STYLE_ASSIGNMENT (( #265 ) ) ;
#289 = CARTESIAN_POINT ( 'NONE',  ( -0.05682581389661672117, 0.09842519685039372024, 1.000000000000000000 ) ) ;
#290 = DIRECTION ( 'NONE',  ( 1.000000000000000000, 0.0000000000000000000, 0.0000000000000000000 ) ) ;
#291 = CARTESIAN_POINT ( 'NONE',  ( 0.1136516277932334840, -3.511000800346711873E-17, 0.0000000000000000000 ) ) ;
#292 = DIRECTION ( 'NONE',  ( -0.8660254037844385966, 0.5000000000000002220, 0.0000000000000000000 ) ) ;
#293 = PLANE ( 'NONE',  #57 ) ;
#294 = LINE ( 'NONE', #307, #56 ) ;
#295 = EDGE_CURVE ( 'NONE', #215, #166, #178, .T. ) ;
#296 = CLOSED_SHELL ( 'NONE', ( #286, #240, #304, #75, #190, #267, #42, #48, #89 ) ) ;
#297 = ADVANCED_BREP_SHAPE_REPRESENTATION ( 'am-4535-1000 5mm Hex x 1000IN Spacer', ( #261, #25 ), #244 ) ;
#298 = DIRECTION ( 'NONE',  ( -3.004629197474316090E-16, 1.000000000000000000, 0.0000000000000000000 ) ) ;
#299 = DIRECTION ( 'NONE',  ( 1.000000000000000000, 0.0000000000000000000, 0.0000000000000000000 ) ) ;
#300 = DIRECTION ( 'NONE',  ( 0.0000000000000000000, 0.0000000000000000000, 1.000000000000000000 ) ) ;
#301 = LINE ( 'NONE', #287, #107 ) ;
#302 = EDGE_CURVE ( 'NONE', #83, #201, #182, .T. ) ;
#303 = EDGE_CURVE ( 'NONE', #169, #76, #168, .T. ) ;
#304 = ADVANCED_FACE ( 'NONE', ( #164, #163 ), #162, .T. ) ;
#305 = VECTOR ( 'NONE', #226, 39.37007874015748143 ) ;
#306 = CARTESIAN_POINT ( 'NONE',  ( 0.05682581389661667953, 0.09842519685039373412, 1.000000000000000000 ) ) ;
#307 = CARTESIAN_POINT ( 'NONE',  ( 0.05682581389661680443, -0.09842519685039362309, 1.000000000000000000 ) ) ;
#308 = DIRECTION ( 'NONE',  ( 0.0000000000000000000, 0.0000000000000000000, 1.000000000000000000 ) ) ;
#309 = DIRECTION ( 'NONE',  ( -1.000000000000000000, -3.004629197474316090E-16, 0.0000000000000000000 ) ) ;
#310 = DIRECTION ( 'NONE',  ( -0.5000000000000001110, -0.8660254037844384856, 0.0000000000000000000 ) ) ;
#311 = CARTESIAN_POINT ( 'NONE',  ( -0.05682581389661671423, -0.09842519685039365085, 0.0000000000000000000 ) ) ;
ENDSEC;
END-ISO-10303-21;
