ISO-10303-21;
HEADER;
FILE_DESCRIPTION (( 'STEP AP214' ),
    '1' );
FILE_NAME ('am-4553_Blue Shipping Hub Sleeve.STEP',
    '2021-09-02T19:58:04',
    ( '' ),
    ( '' ),
    'SwSTEP 2.0',
    'SolidWorks 2021',
    '' );
FILE_SCHEMA (( 'AUTOMOTIVE_DESIGN' ));
ENDSEC;

DATA;
#1 = DIRECTION ( 'NONE',  ( 0.000000000000000000, -0.000000000000000000, 1.000000000000000000 ) ) ;
#2 = PRESENTATION_LAYER_ASSIGNMENT (  '', '', ( #23 ) ) ;
#3 =( NAMED_UNIT ( * ) SI_UNIT ( $, .STERADIAN. ) SOLID_ANGLE_UNIT ( ) );
#4 = COLOUR_RGB ( '',0.000000000000000000, 0.000000000000000000, 1.000000000000000000 ) ;
#5 = ORIENTED_EDGE ( 'NONE', *, *, #107, .T. ) ;
#6 = EDGE_CURVE ( 'NONE', #26, #207, #177, .T. ) ;
#7 = CIRCLE ( 'NONE', #126, 0.5374999999999999778 ) ;
#8 = EDGE_LOOP ( 'NONE', ( #174, #217 ) ) ;
#9 = ORIENTED_EDGE ( 'NONE', *, *, #200, .T. ) ;
#10 = FACE_OUTER_BOUND ( 'NONE', #125, .T. ) ;
#11 = EDGE_LOOP ( 'NONE', ( #59, #86 ) ) ;
#12 = DIRECTION ( 'NONE',  ( -0.000000000000000000, -1.000000000000000000, -0.000000000000000000 ) ) ;
#13 = DIRECTION ( 'NONE',  ( 0.000000000000000000, 0.000000000000000000, 1.000000000000000000 ) ) ;
#14 = CARTESIAN_POINT ( 'NONE',  ( 0.000000000000000000, -2.600000000000000089, 0.000000000000000000 ) ) ;
#15 = ADVANCED_FACE ( 'NONE', ( #10 ), #137, .F. ) ;
#16 = SURFACE_STYLE_FILL_AREA ( #145 ) ;
#17 = PLANE ( 'NONE',  #181 ) ;
#18 = LENGTH_MEASURE_WITH_UNIT ( LENGTH_MEASURE( 0.02539999999999999897 ), #35 );
#19 = CYLINDRICAL_SURFACE ( 'NONE', #71, 0.6574999999999999734 ) ;
#20 = DIRECTION ( 'NONE',  ( 0.000000000000000000, 1.000000000000000000, 0.000000000000000000 ) ) ;
#21 = ORIENTED_EDGE ( 'NONE', *, *, #57, .F. ) ;
#22 = AXIS2_PLACEMENT_3D ( 'NONE', #178, #143, #28 ) ;
#23 = STYLED_ITEM ( 'NONE', ( #104 ), #165 ) ;
#24 = ORIENTED_EDGE ( 'NONE', *, *, #110, .T. ) ;
#25 = UNCERTAINTY_MEASURE_WITH_UNIT (LENGTH_MEASURE( 1.000000000000000082E-05 ), #183, 'distance_accuracy_value', 'NONE');
#26 = VERTEX_POINT ( 'NONE', #153 ) ;
#27 = CARTESIAN_POINT ( 'NONE',  ( 0.000000000000000000, 2.600000000000000089, 0.000000000000000000 ) ) ;
#28 = DIRECTION ( 'NONE',  ( 0.000000000000000000, 0.000000000000000000, 1.000000000000000000 ) ) ;
#29 = CARTESIAN_POINT ( 'NONE',  ( 0.000000000000000000, -2.600000000000000089, -0.5374999999999999778 ) ) ;
#30 = DIRECTION ( 'NONE',  ( -0.000000000000000000, -1.000000000000000000, -0.000000000000000000 ) ) ;
#31 = DIRECTION ( 'NONE',  ( 0.000000000000000000, 0.000000000000000000, 1.000000000000000000 ) ) ;
#32 =( GEOMETRIC_REPRESENTATION_CONTEXT ( 3 ) GLOBAL_UNCERTAINTY_ASSIGNED_CONTEXT ( ( #25 ) ) GLOBAL_UNIT_ASSIGNED_CONTEXT ( ( #183, #34, #84 ) ) REPRESENTATION_CONTEXT ( 'NONE', 'WORKASPACE' ) );
#33 = CARTESIAN_POINT ( 'NONE',  ( 6.582476545417024321E-17, -2.600000000000000089, 0.5374999999999999778 ) ) ;
#34 =( NAMED_UNIT ( * ) PLANE_ANGLE_UNIT ( ) SI_UNIT ( $, .RADIAN. ) );
#35 =( LENGTH_UNIT ( ) NAMED_UNIT ( * ) SI_UNIT ( $, .METRE. ) );
#36 = DIMENSIONAL_EXPONENTS ( 1.000000000000000000, 0.000000000000000000, 0.000000000000000000, 0.000000000000000000, 0.000000000000000000, 0.000000000000000000, 0.000000000000000000 ) ;
#37 = PRESENTATION_LAYER_ASSIGNMENT (  '', '', ( #161 ) ) ;
#38 = PRODUCT_DEFINITION ( 'UNKNOWN', '', #141, #121 ) ;
#39 = APPLICATION_CONTEXT ( 'automotive_design' ) ;
#40 = PRESENTATION_STYLE_ASSIGNMENT (( #213 ) ) ;
#41 = DIRECTION ( 'NONE',  ( 0.000000000000000000, 1.000000000000000000, 0.000000000000000000 ) ) ;
#42 = EDGE_LOOP ( 'NONE', ( #196, #5, #176, #43 ) ) ;
#43 = ORIENTED_EDGE ( 'NONE', *, *, #200, .F. ) ;
#44 = FACE_OUTER_BOUND ( 'NONE', #8, .T. ) ;
#45 = AXIS2_PLACEMENT_3D ( 'NONE', #14, #62, #46 ) ;
#46 = DIRECTION ( 'NONE',  ( 0.000000000000000000, 0.000000000000000000, 1.000000000000000000 ) ) ;
#47 = PLANE ( 'NONE',  #154 ) ;
#48 = MECHANICAL_DESIGN_GEOMETRIC_PRESENTATION_REPRESENTATION (  '', ( #23 ), #148 ) ;
#49 = DIRECTION ( 'NONE',  ( 0.000000000000000000, 0.000000000000000000, -1.000000000000000000 ) ) ;
#50 = DIRECTION ( 'NONE',  ( -0.000000000000000000, -1.000000000000000000, -0.000000000000000000 ) ) ;
#51 =( NAMED_UNIT ( * ) SI_UNIT ( $, .STERADIAN. ) SOLID_ANGLE_UNIT ( ) );
#52 = EDGE_CURVE ( 'NONE', #136, #114, #76, .T. ) ;
#53 = DIMENSIONAL_EXPONENTS ( 1.000000000000000000, 0.000000000000000000, 0.000000000000000000, 0.000000000000000000, 0.000000000000000000, 0.000000000000000000, 0.000000000000000000 ) ;
#54 = FILL_AREA_STYLE_COLOUR ( '', #188 ) ;
#55 = DIMENSIONAL_EXPONENTS ( 1.000000000000000000, 0.000000000000000000, 0.000000000000000000, 0.000000000000000000, 0.000000000000000000, 0.000000000000000000, 0.000000000000000000 ) ;
#56 = FACE_OUTER_BOUND ( 'NONE', #214, .T. ) ;
#57 = EDGE_CURVE ( 'NONE', #171, #157, #173, .T. ) ;
#58 = EDGE_LOOP ( 'NONE', ( #96, #90 ) ) ;
#59 = ORIENTED_EDGE ( 'NONE', *, *, #123, .F. ) ;
#60 = ORIENTED_EDGE ( 'NONE', *, *, #158, .T. ) ;
#61 = VERTEX_POINT ( 'NONE', #29 ) ;
#62 = DIRECTION ( 'NONE',  ( 0.000000000000000000, 1.000000000000000000, 0.000000000000000000 ) ) ;
#63 = CARTESIAN_POINT ( 'NONE',  ( 0.000000000000000000, 2.600000000000000089, 0.000000000000000000 ) ) ;
#64 = AXIS2_PLACEMENT_3D ( 'NONE', #70, #130, #31 ) ;
#65 = FACE_OUTER_BOUND ( 'NONE', #42, .T. ) ;
#66 = DIRECTION ( 'NONE',  ( 0.000000000000000000, 0.000000000000000000, -1.000000000000000000 ) ) ;
#67 = CIRCLE ( 'NONE', #166, 0.5374999999999999778 ) ;
#68 = CARTESIAN_POINT ( 'NONE',  ( 8.052052704393848613E-17, -2.600000000000000089, 0.6574999999999999734 ) ) ;
#69 = EDGE_CURVE ( 'NONE', #61, #157, #7, .T. ) ;
#70 = CARTESIAN_POINT ( 'NONE',  ( 0.000000000000000000, -2.600000000000000089, 0.000000000000000000 ) ) ;
#71 = AXIS2_PLACEMENT_3D ( 'NONE', #82, #50, #66 ) ;
#72 = CIRCLE ( 'NONE', #93, 0.6574999999999999734 ) ;
#73 =( LENGTH_UNIT ( ) NAMED_UNIT ( * ) SI_UNIT ( $, .METRE. ) );
#74 = DIRECTION ( 'NONE',  ( -0.000000000000000000, -1.000000000000000000, -0.000000000000000000 ) ) ;
#75 = FILL_AREA_STYLE ('',( #135 ) ) ;
#76 = CIRCLE ( 'NONE', #118, 0.6574999999999999734 ) ;
#77 = ADVANCED_FACE ( 'NONE', ( #44, #218 ), #47, .F. ) ;
#78 = CARTESIAN_POINT ( 'NONE',  ( 0.000000000000000000, -2.600000000000000089, 0.000000000000000000 ) ) ;
#79 = CARTESIAN_POINT ( 'NONE',  ( 0.000000000000000000, 2.600000000000000089, -0.6574999999999999734 ) ) ;
#80 = CARTESIAN_POINT ( 'NONE',  ( 0.000000000000000000, 2.600000000000000089, 0.000000000000000000 ) ) ;
#81 = FACE_BOUND ( 'NONE', #11, .T. ) ;
#82 = CARTESIAN_POINT ( 'NONE',  ( 0.000000000000000000, 2.600000000000000089, 0.000000000000000000 ) ) ;
#83 =( CONVERSION_BASED_UNIT ( 'INCH', #18 ) LENGTH_UNIT ( ) NAMED_UNIT ( #55 ) );
#84 =( NAMED_UNIT ( * ) SI_UNIT ( $, .STERADIAN. ) SOLID_ANGLE_UNIT ( ) );
#85 = LENGTH_MEASURE_WITH_UNIT ( LENGTH_MEASURE( 0.02539999999999999897 ), #204 );
#86 = ORIENTED_EDGE ( 'NONE', *, *, #110, .F. ) ;
#87 = VECTOR ( 'NONE', #12, 39.37007874015748143 ) ;
#88 = PRODUCT_CONTEXT ( 'NONE', #89, 'mechanical' ) ;
#89 = APPLICATION_CONTEXT ( 'automotive_design' ) ;
#90 = ORIENTED_EDGE ( 'NONE', *, *, #147, .T. ) ;
#91 = DIRECTION ( 'NONE',  ( 0.000000000000000000, 0.000000000000000000, 1.000000000000000000 ) ) ;
#92 = DIRECTION ( 'NONE',  ( 0.000000000000000000, 0.000000000000000000, -1.000000000000000000 ) ) ;
#93 = AXIS2_PLACEMENT_3D ( 'NONE', #80, #203, #220 ) ;
#94 = ORIENTED_EDGE ( 'NONE', *, *, #52, .F. ) ;
#95 = PRODUCT_DEFINITION_SHAPE ( 'NONE', 'NONE',  #38 ) ;
#96 = ORIENTED_EDGE ( 'NONE', *, *, #52, .T. ) ;
#97 = CARTESIAN_POINT ( 'NONE',  ( 0.000000000000000000, -2.600000000000000089, 0.000000000000000000 ) ) ;
#98 = ADVANCED_FACE ( 'NONE', ( #160 ), #140, .F. ) ;
#99 = DIRECTION ( 'NONE',  ( 0.000000000000000000, 1.000000000000000000, 0.000000000000000000 ) ) ;
#100 = AXIS2_PLACEMENT_3D ( 'NONE', #97, #41, #159 ) ;
#101 = DIRECTION ( 'NONE',  ( 0.000000000000000000, -0.000000000000000000, 1.000000000000000000 ) ) ;
#102 = CARTESIAN_POINT ( 'NONE',  ( 8.052052704393848613E-17, 2.600000000000000089, 0.6574999999999999734 ) ) ;
#103 = DIRECTION ( 'NONE',  ( 0.000000000000000000, 0.000000000000000000, -1.000000000000000000 ) ) ;
#104 = PRESENTATION_STYLE_ASSIGNMENT (( #167 ) ) ;
#105 = CIRCLE ( 'NONE', #22, 0.5374999999999999778 ) ;
#106 = ORIENTED_EDGE ( 'NONE', *, *, #158, .F. ) ;
#107 = EDGE_CURVE ( 'NONE', #114, #207, #219, .T. ) ;
#108 = VECTOR ( 'NONE', #223, 39.37007874015748143 ) ;
#109 = APPLICATION_PROTOCOL_DEFINITION ( 'draft international standard', 'automotive_design', 1998, #89 ) ;
#110 = EDGE_CURVE ( 'NONE', #171, #156, #105, .T. ) ;
#111 = ORIENTED_EDGE ( 'NONE', *, *, #57, .T. ) ;
#112 = UNCERTAINTY_MEASURE_WITH_UNIT (LENGTH_MEASURE( 1.000000000000000082E-05 ), #190, 'distance_accuracy_value', 'NONE');
#113 = ORIENTED_EDGE ( 'NONE', *, *, #123, .T. ) ;
#114 = VERTEX_POINT ( 'NONE', #127 ) ;
#115 = CIRCLE ( 'NONE', #45, 0.6574999999999999734 ) ;
#116 = DIRECTION ( 'NONE',  ( 0.000000000000000000, 1.000000000000000000, 0.000000000000000000 ) ) ;
#117 = CARTESIAN_POINT ( 'NONE',  ( 0.000000000000000000, 2.600000000000000089, 0.000000000000000000 ) ) ;
#118 = AXIS2_PLACEMENT_3D ( 'NONE', #27, #99, #191 ) ;
#119 = EDGE_CURVE ( 'NONE', #207, #26, #115, .T. ) ;
#120 = CARTESIAN_POINT ( 'NONE',  ( 0.000000000000000000, 2.600000000000000089, -0.5374999999999999778 ) ) ;
#121 = PRODUCT_DEFINITION_CONTEXT ( 'detailed design', #39, 'design' ) ;
#122 = ORIENTED_EDGE ( 'NONE', *, *, #69, .T. ) ;
#123 = EDGE_CURVE ( 'NONE', #156, #171, #67, .T. ) ;
#124 = CARTESIAN_POINT ( 'NONE',  ( 0.000000000000000000, 2.600000000000000089, 0.000000000000000000 ) ) ;
#125 = EDGE_LOOP ( 'NONE', ( #21, #24, #60, #192 ) ) ;
#126 = AXIS2_PLACEMENT_3D ( 'NONE', #179, #201, #164 ) ;
#127 = CARTESIAN_POINT ( 'NONE',  ( 8.052052704393848613E-17, 2.600000000000000089, 0.6574999999999999734 ) ) ;
#128 = AXIS2_PLACEMENT_3D ( 'NONE', #124, #74, #92 ) ;
#129 = DIRECTION ( 'NONE',  ( -0.000000000000000000, -1.000000000000000000, -0.000000000000000000 ) ) ;
#130 = DIRECTION ( 'NONE',  ( 0.000000000000000000, 1.000000000000000000, 0.000000000000000000 ) ) ;
#131 =( NAMED_UNIT ( * ) PLANE_ANGLE_UNIT ( ) SI_UNIT ( $, .RADIAN. ) );
#132 = CARTESIAN_POINT ( 'NONE',  ( 0.000000000000000000, 2.600000000000000089, 0.000000000000000000 ) ) ;
#133 = SURFACE_SIDE_STYLE ('',( #169 ) ) ;
#134 = LENGTH_MEASURE_WITH_UNIT ( LENGTH_MEASURE( 0.02539999999999999897 ), #73 );
#135 = FILL_AREA_STYLE_COLOUR ( '', #4 ) ;
#136 = VERTEX_POINT ( 'NONE', #79 ) ;
#137 = CYLINDRICAL_SURFACE ( 'NONE', #128, 0.5374999999999999778 ) ;
#138 = ORIENTED_EDGE ( 'NONE', *, *, #212, .T. ) ;
#139 = CARTESIAN_POINT ( 'NONE',  ( 0.000000000000000000, 2.600000000000000089, 0.000000000000000000 ) ) ;
#140 = CYLINDRICAL_SURFACE ( 'NONE', #221, 0.5374999999999999778 ) ;
#141 = PRODUCT_DEFINITION_FORMATION_WITH_SPECIFIED_SOURCE ( 'ANY', '', #155, .NOT_KNOWN. ) ;
#142 = CYLINDRICAL_SURFACE ( 'NONE', #198, 0.6574999999999999734 ) ;
#143 = DIRECTION ( 'NONE',  ( 0.000000000000000000, 1.000000000000000000, 0.000000000000000000 ) ) ;
#144 = CARTESIAN_POINT ( 'NONE',  ( 0.000000000000000000, 2.600000000000000089, -0.6574999999999999734 ) ) ;
#145 = FILL_AREA_STYLE ('',( #54 ) ) ;
#146 = LINE ( 'NONE', #120, #185 ) ;
#147 = EDGE_CURVE ( 'NONE', #114, #136, #72, .T. ) ;
#148 =( GEOMETRIC_REPRESENTATION_CONTEXT ( 3 ) GLOBAL_UNCERTAINTY_ASSIGNED_CONTEXT ( ( #194 ) ) GLOBAL_UNIT_ASSIGNED_CONTEXT ( ( #83, #131, #51 ) ) REPRESENTATION_CONTEXT ( 'NONE', 'WORKASPACE' ) );
#149 = FACE_OUTER_BOUND ( 'NONE', #58, .T. ) ;
#150 = ADVANCED_FACE ( 'NONE', ( #65 ), #142, .T. ) ;
#151 = CARTESIAN_POINT ( 'NONE',  ( 0.000000000000000000, 0.000000000000000000, 0.000000000000000000 ) ) ;
#152 = SHAPE_DEFINITION_REPRESENTATION ( #95, #187 ) ;
#153 = CARTESIAN_POINT ( 'NONE',  ( 0.000000000000000000, -2.600000000000000089, -0.6574999999999999734 ) ) ;
#154 = AXIS2_PLACEMENT_3D ( 'NONE', #78, #116, #101 ) ;
#155 = PRODUCT ( 'am-4553_Blue Shipping Hub Sleeve', 'am-4553_Blue Shipping Hub Sleeve', '', ( #88 ) ) ;
#156 = VERTEX_POINT ( 'NONE', #182 ) ;
#157 = VERTEX_POINT ( 'NONE', #33 ) ;
#158 = EDGE_CURVE ( 'NONE', #156, #61, #146, .T. ) ;
#159 = DIRECTION ( 'NONE',  ( 0.000000000000000000, 0.000000000000000000, 1.000000000000000000 ) ) ;
#160 = FACE_OUTER_BOUND ( 'NONE', #208, .T. ) ;
#161 = STYLED_ITEM ( 'NONE', ( #40 ), #187 ) ;
#162 = DIRECTION ( 'NONE',  ( 0.000000000000000000, 1.000000000000000000, 0.000000000000000000 ) ) ;
#163 = DIRECTION ( 'NONE',  ( -0.000000000000000000, -1.000000000000000000, -0.000000000000000000 ) ) ;
#164 = DIRECTION ( 'NONE',  ( 0.000000000000000000, 0.000000000000000000, 1.000000000000000000 ) ) ;
#165 = MANIFOLD_SOLID_BREP ( 'Boss-Extrude1', #202 ) ;
#166 = AXIS2_PLACEMENT_3D ( 'NONE', #117, #162, #13 ) ;
#167 = SURFACE_STYLE_USAGE ( .BOTH. , #205 ) ;
#168 = DIRECTION ( 'NONE',  ( -0.000000000000000000, -1.000000000000000000, -0.000000000000000000 ) ) ;
#169 = SURFACE_STYLE_FILL_AREA ( #75 ) ;
#170 = APPLICATION_PROTOCOL_DEFINITION ( 'draft international standard', 'automotive_design', 1998, #39 ) ;
#171 = VERTEX_POINT ( 'NONE', #206 ) ;
#172 = DIRECTION ( 'NONE',  ( 1.000000000000000000, 0.000000000000000000, 0.000000000000000000 ) ) ;
#173 = LINE ( 'NONE', #199, #87 ) ;
#174 = ORIENTED_EDGE ( 'NONE', *, *, #6, .F. ) ;
#175 = EDGE_LOOP ( 'NONE', ( #122, #138 ) ) ;
#176 = ORIENTED_EDGE ( 'NONE', *, *, #119, .T. ) ;
#177 = CIRCLE ( 'NONE', #100, 0.6574999999999999734 ) ;
#178 = CARTESIAN_POINT ( 'NONE',  ( 0.000000000000000000, 2.600000000000000089, 0.000000000000000000 ) ) ;
#179 = CARTESIAN_POINT ( 'NONE',  ( 0.000000000000000000, -2.600000000000000089, 0.000000000000000000 ) ) ;
#180 = CIRCLE ( 'NONE', #64, 0.5374999999999999778 ) ;
#181 = AXIS2_PLACEMENT_3D ( 'NONE', #132, #20, #1 ) ;
#182 = CARTESIAN_POINT ( 'NONE',  ( 0.000000000000000000, 2.600000000000000089, -0.5374999999999999778 ) ) ;
#183 =( CONVERSION_BASED_UNIT ( 'INCH', #85 ) LENGTH_UNIT ( ) NAMED_UNIT ( #53 ) );
#184 = AXIS2_PLACEMENT_3D ( 'NONE', #151, #91, #172 ) ;
#185 = VECTOR ( 'NONE', #168, 39.37007874015748143 ) ;
#186 = MECHANICAL_DESIGN_GEOMETRIC_PRESENTATION_REPRESENTATION (  '', ( #161 ), #197 ) ;
#187 = ADVANCED_BREP_SHAPE_REPRESENTATION ( 'am-4553_Blue Shipping Hub Sleeve', ( #165, #184 ), #32 ) ;
#188 = COLOUR_RGB ( '',0.000000000000000000, 0.000000000000000000, 1.000000000000000000 ) ;
#189 =( NAMED_UNIT ( * ) PLANE_ANGLE_UNIT ( ) SI_UNIT ( $, .RADIAN. ) );
#190 =( CONVERSION_BASED_UNIT ( 'INCH', #134 ) LENGTH_UNIT ( ) NAMED_UNIT ( #36 ) );
#191 = DIRECTION ( 'NONE',  ( 0.000000000000000000, 0.000000000000000000, 1.000000000000000000 ) ) ;
#192 = ORIENTED_EDGE ( 'NONE', *, *, #212, .F. ) ;
#193 = ORIENTED_EDGE ( 'NONE', *, *, #6, .T. ) ;
#194 = UNCERTAINTY_MEASURE_WITH_UNIT (LENGTH_MEASURE( 1.000000000000000082E-05 ), #83, 'distance_accuracy_value', 'NONE');
#195 = ADVANCED_FACE ( 'NONE', ( #149, #81 ), #17, .T. ) ;
#196 = ORIENTED_EDGE ( 'NONE', *, *, #147, .F. ) ;
#197 =( GEOMETRIC_REPRESENTATION_CONTEXT ( 3 ) GLOBAL_UNCERTAINTY_ASSIGNED_CONTEXT ( ( #112 ) ) GLOBAL_UNIT_ASSIGNED_CONTEXT ( ( #190, #189, #3 ) ) REPRESENTATION_CONTEXT ( 'NONE', 'WORKASPACE' ) );
#198 = AXIS2_PLACEMENT_3D ( 'NONE', #63, #129, #49 ) ;
#199 = CARTESIAN_POINT ( 'NONE',  ( 6.582476545417024321E-17, 2.600000000000000089, 0.5374999999999999778 ) ) ;
#200 = EDGE_CURVE ( 'NONE', #136, #26, #209, .T. ) ;
#201 = DIRECTION ( 'NONE',  ( 0.000000000000000000, 1.000000000000000000, 0.000000000000000000 ) ) ;
#202 = CLOSED_SHELL ( 'NONE', ( #98, #150, #195, #77, #215, #15 ) ) ;
#203 = DIRECTION ( 'NONE',  ( 0.000000000000000000, 1.000000000000000000, 0.000000000000000000 ) ) ;
#204 =( LENGTH_UNIT ( ) NAMED_UNIT ( * ) SI_UNIT ( $, .METRE. ) );
#205 = SURFACE_SIDE_STYLE ('',( #16 ) ) ;
#206 = CARTESIAN_POINT ( 'NONE',  ( 6.582476545417024321E-17, 2.600000000000000089, 0.5374999999999999778 ) ) ;
#207 = VERTEX_POINT ( 'NONE', #68 ) ;
#208 = EDGE_LOOP ( 'NONE', ( #113, #111, #216, #106 ) ) ;
#209 = LINE ( 'NONE', #144, #108 ) ;
#210 = VECTOR ( 'NONE', #163, 39.37007874015748143 ) ;
#211 = ORIENTED_EDGE ( 'NONE', *, *, #107, .F. ) ;
#212 = EDGE_CURVE ( 'NONE', #157, #61, #180, .T. ) ;
#213 = SURFACE_STYLE_USAGE ( .BOTH. , #133 ) ;
#214 = EDGE_LOOP ( 'NONE', ( #211, #94, #9, #193 ) ) ;
#215 = ADVANCED_FACE ( 'NONE', ( #56 ), #19, .T. ) ;
#216 = ORIENTED_EDGE ( 'NONE', *, *, #69, .F. ) ;
#217 = ORIENTED_EDGE ( 'NONE', *, *, #119, .F. ) ;
#218 = FACE_BOUND ( 'NONE', #175, .T. ) ;
#219 = LINE ( 'NONE', #102, #210 ) ;
#220 = DIRECTION ( 'NONE',  ( 0.000000000000000000, 0.000000000000000000, 1.000000000000000000 ) ) ;
#221 = AXIS2_PLACEMENT_3D ( 'NONE', #139, #30, #103 ) ;
#222 = PRODUCT_RELATED_PRODUCT_CATEGORY ( 'part', '', ( #155 ) ) ;
#223 = DIRECTION ( 'NONE',  ( -0.000000000000000000, -1.000000000000000000, -0.000000000000000000 ) ) ;
ENDSEC;
END-ISO-10303-21;
