ISO-10303-21;
HEADER;
FILE_DESCRIPTION (( 'STEP AP214' ),
    '1' );
FILE_NAME ('am-4552 Shipping Hub Inner Pipe.STEP',
    '2021-08-23T19:46:58',
    ( '' ),
    ( '' ),
    'SwSTEP 2.0',
    'SolidWorks 2021',
    '' );
FILE_SCHEMA (( 'AUTOMOTIVE_DESIGN' ));
ENDSEC;

DATA;
#1 = STYLED_ITEM ( 'NONE', ( #43 ), #217 ) ;
#2 = APPLICATION_CONTEXT ( 'automotive_design' ) ;
#3 = FILL_AREA_STYLE ('',( #23 ) ) ;
#4 = CARTESIAN_POINT ( 'NONE',  ( 6.429395695523606125E-17, 10.00000000000000000, 0.5250000000000000222 ) ) ;
#5 = ADVANCED_FACE ( 'NONE', ( #166, #216 ), #150, .F. ) ;
#6 = LINE ( 'NONE', #191, #223 ) ;
#7 = MECHANICAL_DESIGN_GEOMETRIC_PRESENTATION_REPRESENTATION (  '', ( #1 ), #90 ) ;
#8 = CARTESIAN_POINT ( 'NONE',  ( 0.000000000000000000, 10.00000000000000000, 0.000000000000000000 ) ) ;
#9 = DIRECTION ( 'NONE',  ( 0.000000000000000000, 0.000000000000000000, 1.000000000000000000 ) ) ;
#10 = CARTESIAN_POINT ( 'NONE',  ( 0.000000000000000000, 10.00000000000000000, 0.000000000000000000 ) ) ;
#11 = CYLINDRICAL_SURFACE ( 'NONE', #49, 0.5250000000000000222 ) ;
#12 = EDGE_CURVE ( 'NONE', #168, #63, #202, .T. ) ;
#13 = SURFACE_SIDE_STYLE ('',( #26 ) ) ;
#14 = ORIENTED_EDGE ( 'NONE', *, *, #12, .F. ) ;
#15 = CARTESIAN_POINT ( 'NONE',  ( 0.000000000000000000, -10.00000000000000000, 0.000000000000000000 ) ) ;
#16 = ORIENTED_EDGE ( 'NONE', *, *, #76, .T. ) ;
#17 = ORIENTED_EDGE ( 'NONE', *, *, #91, .T. ) ;
#18 = ORIENTED_EDGE ( 'NONE', *, *, #74, .T. ) ;
#19 = FACE_OUTER_BOUND ( 'NONE', #178, .T. ) ;
#20 = PRESENTATION_STYLE_ASSIGNMENT (( #120 ) ) ;
#21 = DIRECTION ( 'NONE',  ( -0.000000000000000000, -1.000000000000000000, -0.000000000000000000 ) ) ;
#22 = CARTESIAN_POINT ( 'NONE',  ( 6.429395695523606125E-17, -10.00000000000000000, 0.5250000000000000222 ) ) ;
#23 = FILL_AREA_STYLE_COLOUR ( '', #175 ) ;
#24 = SURFACE_STYLE_USAGE ( .BOTH. , #13 ) ;
#25 = APPLICATION_CONTEXT ( 'automotive_design' ) ;
#26 = SURFACE_STYLE_FILL_AREA ( #196 ) ;
#27 = CARTESIAN_POINT ( 'NONE',  ( 0.000000000000000000, 10.00000000000000000, 0.000000000000000000 ) ) ;
#28 = CARTESIAN_POINT ( 'NONE',  ( 0.000000000000000000, 0.000000000000000000, 0.000000000000000000 ) ) ;
#29 = CARTESIAN_POINT ( 'NONE',  ( 0.000000000000000000, 10.00000000000000000, 0.000000000000000000 ) ) ;
#30 = AXIS2_PLACEMENT_3D ( 'NONE', #8, #21, #155 ) ;
#31 = VERTEX_POINT ( 'NONE', #65 ) ;
#32 = APPLICATION_PROTOCOL_DEFINITION ( 'draft international standard', 'automotive_design', 1998, #25 ) ;
#33 = ORIENTED_EDGE ( 'NONE', *, *, #116, .T. ) ;
#34 = ORIENTED_EDGE ( 'NONE', *, *, #211, .T. ) ;
#35 = MECHANICAL_DESIGN_GEOMETRIC_PRESENTATION_REPRESENTATION (  '', ( #194 ), #142 ) ;
#36 = FACE_OUTER_BOUND ( 'NONE', #134, .T. ) ;
#37 = DIRECTION ( 'NONE',  ( 0.000000000000000000, 0.000000000000000000, 1.000000000000000000 ) ) ;
#38 = CARTESIAN_POINT ( 'NONE',  ( 0.000000000000000000, -10.00000000000000000, 0.000000000000000000 ) ) ;
#39 = EDGE_CURVE ( 'NONE', #104, #63, #133, .T. ) ;
#40 = FACE_OUTER_BOUND ( 'NONE', #51, .T. ) ;
#41 = PRODUCT_DEFINITION ( 'UNKNOWN', '', #203, #143 ) ;
#42 =( LENGTH_UNIT ( ) NAMED_UNIT ( * ) SI_UNIT ( $, .METRE. ) );
#43 = PRESENTATION_STYLE_ASSIGNMENT (( #24 ) ) ;
#44 = CIRCLE ( 'NONE', #219, 0.5250000000000000222 ) ;
#45 = COLOUR_RGB ( '',0.2509803921568627416, 0.2509803921568627416, 0.2509803921568627416 ) ;
#46 = FILL_AREA_STYLE_COLOUR ( '', #45 ) ;
#47 = PRODUCT_RELATED_PRODUCT_CATEGORY ( 'part', '', ( #138 ) ) ;
#48 = VERTEX_POINT ( 'NONE', #119 ) ;
#49 = AXIS2_PLACEMENT_3D ( 'NONE', #27, #158, #78 ) ;
#50 = ORIENTED_EDGE ( 'NONE', *, *, #222, .F. ) ;
#51 = EDGE_LOOP ( 'NONE', ( #115, #67, #180, #98 ) ) ;
#52 = DIRECTION ( 'NONE',  ( -0.000000000000000000, -1.000000000000000000, -0.000000000000000000 ) ) ;
#53 = AXIS2_PLACEMENT_3D ( 'NONE', #149, #201, #184 ) ;
#54 = DIRECTION ( 'NONE',  ( 0.000000000000000000, 1.000000000000000000, 0.000000000000000000 ) ) ;
#55 = CARTESIAN_POINT ( 'NONE',  ( 0.000000000000000000, -10.00000000000000000, 0.000000000000000000 ) ) ;
#56 = SURFACE_SIDE_STYLE ('',( #107 ) ) ;
#57 = ADVANCED_FACE ( 'NONE', ( #36, #169 ), #208, .T. ) ;
#58 =( CONVERSION_BASED_UNIT ( 'INCH', #125 ) LENGTH_UNIT ( ) NAMED_UNIT ( #213 ) );
#59 = DIMENSIONAL_EXPONENTS ( 1.000000000000000000, 0.000000000000000000, 0.000000000000000000, 0.000000000000000000, 0.000000000000000000, 0.000000000000000000, 0.000000000000000000 ) ;
#60 =( NAMED_UNIT ( * ) PLANE_ANGLE_UNIT ( ) SI_UNIT ( $, .RADIAN. ) );
#61 = LINE ( 'NONE', #93, #179 ) ;
#62 = SHAPE_DEFINITION_REPRESENTATION ( #200, #217 ) ;
#63 = VERTEX_POINT ( 'NONE', #72 ) ;
#64 = CIRCLE ( 'NONE', #86, 0.5250000000000000222 ) ;
#65 = CARTESIAN_POINT ( 'NONE',  ( 0.000000000000000000, -10.00000000000000000, -0.4249999999999999889 ) ) ;
#66 = ORIENTED_EDGE ( 'NONE', *, *, #39, .T. ) ;
#67 = ORIENTED_EDGE ( 'NONE', *, *, #183, .T. ) ;
#68 = CLOSED_SHELL ( 'NONE', ( #85, #192, #57, #5, #186, #135 ) ) ;
#69 = AXIS2_PLACEMENT_3D ( 'NONE', #106, #136, #174 ) ;
#70 =( NAMED_UNIT ( * ) PLANE_ANGLE_UNIT ( ) SI_UNIT ( $, .RADIAN. ) );
#71 = CARTESIAN_POINT ( 'NONE',  ( 0.000000000000000000, -10.00000000000000000, 0.000000000000000000 ) ) ;
#72 = CARTESIAN_POINT ( 'NONE',  ( 0.000000000000000000, -10.00000000000000000, -0.5250000000000000222 ) ) ;
#73 = DIRECTION ( 'NONE',  ( 0.000000000000000000, 0.000000000000000000, 1.000000000000000000 ) ) ;
#74 = EDGE_CURVE ( 'NONE', #31, #221, #163, .T. ) ;
#75 = VECTOR ( 'NONE', #52, 39.37007874015748143 ) ;
#76 = EDGE_CURVE ( 'NONE', #63, #168, #188, .T. ) ;
#77 =( CONVERSION_BASED_UNIT ( 'INCH', #113 ) LENGTH_UNIT ( ) NAMED_UNIT ( #122 ) );
#78 = DIRECTION ( 'NONE',  ( 0.000000000000000000, 0.000000000000000000, -1.000000000000000000 ) ) ;
#79 = CYLINDRICAL_SURFACE ( 'NONE', #121, 0.5250000000000000222 ) ;
#80 = PRODUCT_CONTEXT ( 'NONE', #2, 'mechanical' ) ;
#81 = ORIENTED_EDGE ( 'NONE', *, *, #123, .F. ) ;
#82 = EDGE_LOOP ( 'NONE', ( #81, #118 ) ) ;
#83 = ORIENTED_EDGE ( 'NONE', *, *, #177, .F. ) ;
#84 = DIRECTION ( 'NONE',  ( -0.000000000000000000, -1.000000000000000000, -0.000000000000000000 ) ) ;
#85 = ADVANCED_FACE ( 'NONE', ( #19 ), #190, .F. ) ;
#86 = AXIS2_PLACEMENT_3D ( 'NONE', #10, #215, #9 ) ;
#87 = CARTESIAN_POINT ( 'NONE',  ( 0.000000000000000000, 10.00000000000000000, 0.000000000000000000 ) ) ;
#88 = DIRECTION ( 'NONE',  ( 0.000000000000000000, 1.000000000000000000, 0.000000000000000000 ) ) ;
#89 = DIRECTION ( 'NONE',  ( 0.000000000000000000, 0.000000000000000000, 1.000000000000000000 ) ) ;
#90 =( GEOMETRIC_REPRESENTATION_CONTEXT ( 3 ) GLOBAL_UNCERTAINTY_ASSIGNED_CONTEXT ( ( #112 ) ) GLOBAL_UNIT_ASSIGNED_CONTEXT ( ( #77, #60, #94 ) ) REPRESENTATION_CONTEXT ( 'NONE', 'WORKASPACE' ) );
#91 = EDGE_CURVE ( 'NONE', #221, #31, #207, .T. ) ;
#92 = CARTESIAN_POINT ( 'NONE',  ( 0.000000000000000000, 10.00000000000000000, 0.000000000000000000 ) ) ;
#93 = CARTESIAN_POINT ( 'NONE',  ( 5.204748896376250699E-17, 10.00000000000000000, 0.4249999999999999889 ) ) ;
#94 =( NAMED_UNIT ( * ) SI_UNIT ( $, .STERADIAN. ) SOLID_ANGLE_UNIT ( ) );
#95 = DIRECTION ( 'NONE',  ( 0.000000000000000000, 0.000000000000000000, 1.000000000000000000 ) ) ;
#96 = VECTOR ( 'NONE', #84, 39.37007874015748143 ) ;
#97 = EDGE_CURVE ( 'NONE', #104, #151, #44, .T. ) ;
#98 = ORIENTED_EDGE ( 'NONE', *, *, #91, .F. ) ;
#99 = EDGE_LOOP ( 'NONE', ( #205, #102, #66, #16 ) ) ;
#100 = ORIENTED_EDGE ( 'NONE', *, *, #97, .T. ) ;
#101 = MANIFOLD_SOLID_BREP ( 'Boss-Extrude1', #68 ) ;
#102 = ORIENTED_EDGE ( 'NONE', *, *, #97, .F. ) ;
#103 = AXIS2_PLACEMENT_3D ( 'NONE', #124, #172, #153 ) ;
#104 = VERTEX_POINT ( 'NONE', #189 ) ;
#105 = FACE_OUTER_BOUND ( 'NONE', #99, .T. ) ;
#106 = CARTESIAN_POINT ( 'NONE',  ( 0.000000000000000000, 10.00000000000000000, 0.000000000000000000 ) ) ;
#107 = SURFACE_STYLE_FILL_AREA ( #3 ) ;
#108 =( NAMED_UNIT ( * ) SI_UNIT ( $, .STERADIAN. ) SOLID_ANGLE_UNIT ( ) );
#109 = DIRECTION ( 'NONE',  ( -0.000000000000000000, -1.000000000000000000, -0.000000000000000000 ) ) ;
#110 = PRESENTATION_LAYER_ASSIGNMENT (  '', '', ( #194 ) ) ;
#111 = CARTESIAN_POINT ( 'NONE',  ( 5.204748896376250699E-17, -10.00000000000000000, 0.4249999999999999889 ) ) ;
#112 = UNCERTAINTY_MEASURE_WITH_UNIT (LENGTH_MEASURE( 1.000000000000000082E-05 ), #77, 'distance_accuracy_value', 'NONE');
#113 = LENGTH_MEASURE_WITH_UNIT ( LENGTH_MEASURE( 0.02539999999999999897 ), #42 );
#114 = AXIS2_PLACEMENT_3D ( 'NONE', #71, #88, #37 ) ;
#115 = ORIENTED_EDGE ( 'NONE', *, *, #211, .F. ) ;
#116 = EDGE_CURVE ( 'NONE', #151, #168, #139, .T. ) ;
#117 = ORIENTED_EDGE ( 'NONE', *, *, #76, .F. ) ;
#118 = ORIENTED_EDGE ( 'NONE', *, *, #183, .F. ) ;
#119 = CARTESIAN_POINT ( 'NONE',  ( 0.000000000000000000, 10.00000000000000000, -0.4249999999999999889 ) ) ;
#120 = SURFACE_STYLE_USAGE ( .BOTH. , #56 ) ;
#121 = AXIS2_PLACEMENT_3D ( 'NONE', #147, #161, #198 ) ;
#122 = DIMENSIONAL_EXPONENTS ( 1.000000000000000000, 0.000000000000000000, 0.000000000000000000, 0.000000000000000000, 0.000000000000000000, 0.000000000000000000, 0.000000000000000000 ) ;
#123 = EDGE_CURVE ( 'NONE', #48, #167, #199, .T. ) ;
#124 = CARTESIAN_POINT ( 'NONE',  ( 0.000000000000000000, 10.00000000000000000, 0.000000000000000000 ) ) ;
#125 = LENGTH_MEASURE_WITH_UNIT ( LENGTH_MEASURE( 0.02539999999999999897 ), #146 );
#126 = CIRCLE ( 'NONE', #152, 0.4249999999999999889 ) ;
#127 =( NAMED_UNIT ( * ) SI_UNIT ( $, .STERADIAN. ) SOLID_ANGLE_UNIT ( ) );
#128 = AXIS2_PLACEMENT_3D ( 'NONE', #15, #218, #181 ) ;
#129 = ORIENTED_EDGE ( 'NONE', *, *, #222, .T. ) ;
#130 = AXIS2_PLACEMENT_3D ( 'NONE', #38, #54, #212 ) ;
#131 = ORIENTED_EDGE ( 'NONE', *, *, #123, .T. ) ;
#132 = EDGE_LOOP ( 'NONE', ( #50, #33, #148, #204 ) ) ;
#133 = LINE ( 'NONE', #206, #75 ) ;
#134 = EDGE_LOOP ( 'NONE', ( #100, #129 ) ) ;
#135 = ADVANCED_FACE ( 'NONE', ( #40 ), #210, .F. ) ;
#136 = DIRECTION ( 'NONE',  ( -0.000000000000000000, -1.000000000000000000, -0.000000000000000000 ) ) ;
#137 = DIRECTION ( 'NONE',  ( 0.000000000000000000, 1.000000000000000000, 0.000000000000000000 ) ) ;
#138 = PRODUCT ( 'am-4552 Shipping Hub Inner Pipe', 'am-4552 Shipping Hub Inner Pipe', '', ( #80 ) ) ;
#139 = LINE ( 'NONE', #154, #96 ) ;
#140 = DIRECTION ( 'NONE',  ( 0.000000000000000000, -0.000000000000000000, 1.000000000000000000 ) ) ;
#141 = APPLICATION_PROTOCOL_DEFINITION ( 'draft international standard', 'automotive_design', 1998, #2 ) ;
#142 =( GEOMETRIC_REPRESENTATION_CONTEXT ( 3 ) GLOBAL_UNCERTAINTY_ASSIGNED_CONTEXT ( ( #160 ) ) GLOBAL_UNIT_ASSIGNED_CONTEXT ( ( #171, #70, #108 ) ) REPRESENTATION_CONTEXT ( 'NONE', 'WORKASPACE' ) );
#143 = PRODUCT_DEFINITION_CONTEXT ( 'detailed design', #25, 'design' ) ;
#144 = DIRECTION ( 'NONE',  ( -0.000000000000000000, -1.000000000000000000, -0.000000000000000000 ) ) ;
#145 =( NAMED_UNIT ( * ) PLANE_ANGLE_UNIT ( ) SI_UNIT ( $, .RADIAN. ) );
#146 =( LENGTH_UNIT ( ) NAMED_UNIT ( * ) SI_UNIT ( $, .METRE. ) );
#147 = CARTESIAN_POINT ( 'NONE',  ( 0.000000000000000000, 10.00000000000000000, 0.000000000000000000 ) ) ;
#148 = ORIENTED_EDGE ( 'NONE', *, *, #12, .T. ) ;
#149 = CARTESIAN_POINT ( 'NONE',  ( 0.000000000000000000, -10.00000000000000000, 0.000000000000000000 ) ) ;
#150 = PLANE ( 'NONE',  #53 ) ;
#151 = VERTEX_POINT ( 'NONE', #4 ) ;
#152 = AXIS2_PLACEMENT_3D ( 'NONE', #92, #157, #73 ) ;
#153 = DIRECTION ( 'NONE',  ( 0.000000000000000000, 0.000000000000000000, 1.000000000000000000 ) ) ;
#154 = CARTESIAN_POINT ( 'NONE',  ( 6.429395695523606125E-17, 10.00000000000000000, 0.5250000000000000222 ) ) ;
#155 = DIRECTION ( 'NONE',  ( 0.000000000000000000, 0.000000000000000000, -1.000000000000000000 ) ) ;
#156 = DIRECTION ( 'NONE',  ( 0.000000000000000000, 0.000000000000000000, 1.000000000000000000 ) ) ;
#157 = DIRECTION ( 'NONE',  ( 0.000000000000000000, 1.000000000000000000, 0.000000000000000000 ) ) ;
#158 = DIRECTION ( 'NONE',  ( -0.000000000000000000, -1.000000000000000000, -0.000000000000000000 ) ) ;
#159 = AXIS2_PLACEMENT_3D ( 'NONE', #29, #209, #140 ) ;
#160 = UNCERTAINTY_MEASURE_WITH_UNIT (LENGTH_MEASURE( 1.000000000000000082E-05 ), #171, 'distance_accuracy_value', 'NONE');
#161 = DIRECTION ( 'NONE',  ( -0.000000000000000000, -1.000000000000000000, -0.000000000000000000 ) ) ;
#162 = DIRECTION ( 'NONE',  ( 1.000000000000000000, 0.000000000000000000, 0.000000000000000000 ) ) ;
#163 = CIRCLE ( 'NONE', #214, 0.4249999999999999889 ) ;
#164 = AXIS2_PLACEMENT_3D ( 'NONE', #28, #95, #162 ) ;
#165 = EDGE_LOOP ( 'NONE', ( #18, #17 ) ) ;
#166 = FACE_OUTER_BOUND ( 'NONE', #182, .T. ) ;
#167 = VERTEX_POINT ( 'NONE', #173 ) ;
#168 = VERTEX_POINT ( 'NONE', #22 ) ;
#169 = FACE_BOUND ( 'NONE', #82, .T. ) ;
#170 = DIRECTION ( 'NONE',  ( 0.000000000000000000, 1.000000000000000000, 0.000000000000000000 ) ) ;
#171 =( CONVERSION_BASED_UNIT ( 'INCH', #187 ) LENGTH_UNIT ( ) NAMED_UNIT ( #59 ) );
#172 = DIRECTION ( 'NONE',  ( 0.000000000000000000, 1.000000000000000000, 0.000000000000000000 ) ) ;
#173 = CARTESIAN_POINT ( 'NONE',  ( 5.204748896376250699E-17, 10.00000000000000000, 0.4249999999999999889 ) ) ;
#174 = DIRECTION ( 'NONE',  ( 0.000000000000000000, 0.000000000000000000, -1.000000000000000000 ) ) ;
#175 = COLOUR_RGB ( '',0.2509803921568627416, 0.2509803921568627416, 0.2509803921568627416 ) ;
#176 =( GEOMETRIC_REPRESENTATION_CONTEXT ( 3 ) GLOBAL_UNCERTAINTY_ASSIGNED_CONTEXT ( ( #197 ) ) GLOBAL_UNIT_ASSIGNED_CONTEXT ( ( #58, #145, #127 ) ) REPRESENTATION_CONTEXT ( 'NONE', 'WORKASPACE' ) );
#177 = EDGE_CURVE ( 'NONE', #48, #31, #6, .T. ) ;
#178 = EDGE_LOOP ( 'NONE', ( #131, #34, #220, #83 ) ) ;
#179 = VECTOR ( 'NONE', #144, 39.37007874015748143 ) ;
#180 = ORIENTED_EDGE ( 'NONE', *, *, #177, .T. ) ;
#181 = DIRECTION ( 'NONE',  ( 0.000000000000000000, 0.000000000000000000, 1.000000000000000000 ) ) ;
#182 = EDGE_LOOP ( 'NONE', ( #117, #14 ) ) ;
#183 = EDGE_CURVE ( 'NONE', #167, #48, #126, .T. ) ;
#184 = DIRECTION ( 'NONE',  ( 0.000000000000000000, -0.000000000000000000, 1.000000000000000000 ) ) ;
#185 =( LENGTH_UNIT ( ) NAMED_UNIT ( * ) SI_UNIT ( $, .METRE. ) );
#186 = ADVANCED_FACE ( 'NONE', ( #105 ), #79, .T. ) ;
#187 = LENGTH_MEASURE_WITH_UNIT ( LENGTH_MEASURE( 0.02539999999999999897 ), #185 );
#188 = CIRCLE ( 'NONE', #114, 0.5250000000000000222 ) ;
#189 = CARTESIAN_POINT ( 'NONE',  ( 0.000000000000000000, 10.00000000000000000, -0.5250000000000000222 ) ) ;
#190 = CYLINDRICAL_SURFACE ( 'NONE', #69, 0.4249999999999999889 ) ;
#191 = CARTESIAN_POINT ( 'NONE',  ( 0.000000000000000000, 10.00000000000000000, -0.4249999999999999889 ) ) ;
#192 = ADVANCED_FACE ( 'NONE', ( #193 ), #11, .T. ) ;
#193 = FACE_OUTER_BOUND ( 'NONE', #132, .T. ) ;
#194 = STYLED_ITEM ( 'NONE', ( #20 ), #101 ) ;
#195 = PRESENTATION_LAYER_ASSIGNMENT (  '', '', ( #1 ) ) ;
#196 = FILL_AREA_STYLE ('',( #46 ) ) ;
#197 = UNCERTAINTY_MEASURE_WITH_UNIT (LENGTH_MEASURE( 1.000000000000000082E-05 ), #58, 'distance_accuracy_value', 'NONE');
#198 = DIRECTION ( 'NONE',  ( 0.000000000000000000, 0.000000000000000000, -1.000000000000000000 ) ) ;
#199 = CIRCLE ( 'NONE', #103, 0.4249999999999999889 ) ;
#200 = PRODUCT_DEFINITION_SHAPE ( 'NONE', 'NONE',  #41 ) ;
#201 = DIRECTION ( 'NONE',  ( 0.000000000000000000, 1.000000000000000000, 0.000000000000000000 ) ) ;
#202 = CIRCLE ( 'NONE', #128, 0.5250000000000000222 ) ;
#203 = PRODUCT_DEFINITION_FORMATION_WITH_SPECIFIED_SOURCE ( 'ANY', '', #138, .NOT_KNOWN. ) ;
#204 = ORIENTED_EDGE ( 'NONE', *, *, #39, .F. ) ;
#205 = ORIENTED_EDGE ( 'NONE', *, *, #116, .F. ) ;
#206 = CARTESIAN_POINT ( 'NONE',  ( 0.000000000000000000, 10.00000000000000000, -0.5250000000000000222 ) ) ;
#207 = CIRCLE ( 'NONE', #130, 0.4249999999999999889 ) ;
#208 = PLANE ( 'NONE',  #159 ) ;
#209 = DIRECTION ( 'NONE',  ( 0.000000000000000000, 1.000000000000000000, 0.000000000000000000 ) ) ;
#210 = CYLINDRICAL_SURFACE ( 'NONE', #30, 0.4249999999999999889 ) ;
#211 = EDGE_CURVE ( 'NONE', #167, #221, #61, .T. ) ;
#212 = DIRECTION ( 'NONE',  ( 0.000000000000000000, 0.000000000000000000, 1.000000000000000000 ) ) ;
#213 = DIMENSIONAL_EXPONENTS ( 1.000000000000000000, 0.000000000000000000, 0.000000000000000000, 0.000000000000000000, 0.000000000000000000, 0.000000000000000000, 0.000000000000000000 ) ;
#214 = AXIS2_PLACEMENT_3D ( 'NONE', #55, #170, #89 ) ;
#215 = DIRECTION ( 'NONE',  ( 0.000000000000000000, 1.000000000000000000, 0.000000000000000000 ) ) ;
#216 = FACE_BOUND ( 'NONE', #165, .T. ) ;
#217 = ADVANCED_BREP_SHAPE_REPRESENTATION ( 'am-4552 Shipping Hub Inner Pipe', ( #101, #164 ), #176 ) ;
#218 = DIRECTION ( 'NONE',  ( 0.000000000000000000, 1.000000000000000000, 0.000000000000000000 ) ) ;
#219 = AXIS2_PLACEMENT_3D ( 'NONE', #87, #137, #156 ) ;
#220 = ORIENTED_EDGE ( 'NONE', *, *, #74, .F. ) ;
#221 = VERTEX_POINT ( 'NONE', #111 ) ;
#222 = EDGE_CURVE ( 'NONE', #151, #104, #64, .T. ) ;
#223 = VECTOR ( 'NONE', #109, 39.37007874015748143 ) ;
ENDSEC;
END-ISO-10303-21;
