ISO-10303-21;
HEADER;
FILE_DESCRIPTION (( 'STEP AP214' ),
    '1' );
FILE_NAME ('am-4019 Stealth Wheel FlyWheel.STEP',
    '2021-12-14T19:44:58',
    ( '' ),
    ( '' ),
    'SwSTEP 2.0',
    'SolidWorks 2021',
    '' );
FILE_SCHEMA (( 'AUTOMOTIVE_DESIGN' ));
ENDSEC;

DATA;
#1 = VERTEX_POINT ( 'NONE', #346 ) ;
#2 = ORIENTED_EDGE ( 'NONE', *, *, #220, .F. ) ;
#3 =( NAMED_UNIT ( * ) SI_UNIT ( $, .STERADIAN. ) SOLID_ANGLE_UNIT ( ) );
#4 = CIRCLE ( 'NONE', #193, 0.09800000000000876066 ) ;
#5 = CARTESIAN_POINT ( 'NONE',  ( 0.8118988160479114757, 0.000000000000000000, 0.5667500000000041949 ) ) ;
#6 = ORIENTED_EDGE ( 'NONE', *, *, #272, .T. ) ;
#7 = CARTESIAN_POINT ( 'NONE',  ( 0.8118988160479382321, 0.3750000000000000555, -0.3707500000000175655 ) ) ;
#8 = ORIENTED_EDGE ( 'NONE', *, *, #340, .T. ) ;
#9 =( NAMED_UNIT ( * ) SI_UNIT ( $, .STERADIAN. ) SOLID_ANGLE_UNIT ( ) );
#10 = AXIS2_PLACEMENT_3D ( 'NONE', #200, #276, #148 ) ;
#11 = EDGE_LOOP ( 'NONE', ( #268 ) ) ;
#12 = ORIENTED_EDGE ( 'NONE', *, *, #277, .T. ) ;
#13 = DIRECTION ( 'NONE',  ( 0.000000000000000000, 0.000000000000000000, 1.000000000000000000 ) ) ;
#14 = CARTESIAN_POINT ( 'NONE',  ( 0.8118988160479114757, 0.3750000000000000555, 0.4687499999999998890 ) ) ;
#15 = CARTESIAN_POINT ( 'NONE',  ( 0.8118988160479382321, 0.000000000000000000, -0.4687500000000001665 ) ) ;
#16 = CYLINDRICAL_SURFACE ( 'NONE', #43, 0.09800000000000644307 ) ;
#17 = ORIENTED_EDGE ( 'NONE', *, *, #299, .T. ) ;
#18 = FACE_BOUND ( 'NONE', #113, .T. ) ;
#19 = DIMENSIONAL_EXPONENTS ( 1.000000000000000000, 0.000000000000000000, 0.000000000000000000, 0.000000000000000000, 0.000000000000000000, 0.000000000000000000, 0.000000000000000000 ) ;
#20 = FACE_BOUND ( 'NONE', #144, .T. ) ;
#21 = CIRCLE ( 'NONE', #177, 1.649999999999999911 ) ;
#22 = FACE_BOUND ( 'NONE', #174, .T. ) ;
#23 = DIRECTION ( 'NONE',  ( 0.000000000000000000, 1.000000000000000000, 0.000000000000000000 ) ) ;
#24 = AXIS2_PLACEMENT_3D ( 'NONE', #172, #150, #250 ) ;
#25 = CARTESIAN_POINT ( 'NONE',  ( 0.000000000000000000, 0.000000000000000000, 0.000000000000000000 ) ) ;
#26 = ADVANCED_FACE ( 'NONE', ( #65, #212 ), #168, .F. ) ;
#27 = FACE_BOUND ( 'NONE', #33, .T. ) ;
#28 = CARTESIAN_POINT ( 'NONE',  ( 0.8118988160479114757, 0.3750000000000000555, 0.5667500000000041949 ) ) ;
#29 = EDGE_LOOP ( 'NONE', ( #74 ) ) ;
#30 = ADVANCED_FACE ( 'NONE', ( #292, #90 ), #87, .F. ) ;
#31 = PRESENTATION_STYLE_ASSIGNMENT (( #234 ) ) ;
#32 = ORIENTED_EDGE ( 'NONE', *, *, #231, .F. ) ;
#33 = EDGE_LOOP ( 'NONE', ( #294 ) ) ;
#34 = LENGTH_MEASURE_WITH_UNIT ( LENGTH_MEASURE( 0.02539999999999999897 ), #273 );
#35 = ORIENTED_EDGE ( 'NONE', *, *, #345, .F. ) ;
#36 =( CONVERSION_BASED_UNIT ( 'INCH', #146 ) LENGTH_UNIT ( ) NAMED_UNIT ( #19 ) );
#37 = CLOSED_SHELL ( 'NONE', ( #316, #152, #336, #116, #70, #30, #287, #41, #26, #209 ) ) ;
#38 = EDGE_LOOP ( 'NONE', ( #245 ) ) ;
#39 = DIRECTION ( 'NONE',  ( 0.000000000000000000, 0.000000000000000000, -1.000000000000000000 ) ) ;
#40 = CYLINDRICAL_SURFACE ( 'NONE', #201, 0.4699999999999999734 ) ;
#41 = ADVANCED_FACE ( 'NONE', ( #328, #192 ), #16, .F. ) ;
#42 = FACE_OUTER_BOUND ( 'NONE', #324, .T. ) ;
#43 = AXIS2_PLACEMENT_3D ( 'NONE', #176, #69, #248 ) ;
#44 = ORIENTED_EDGE ( 'NONE', *, *, #272, .F. ) ;
#45 = CARTESIAN_POINT ( 'NONE',  ( -0.8118988160479115868, 0.3750000000000000555, -0.4687499999999993339 ) ) ;
#46 = AXIS2_PLACEMENT_3D ( 'NONE', #258, #23, #204 ) ;
#47 = DIRECTION ( 'NONE',  ( 0.000000000000000000, 1.000000000000000000, 0.000000000000000000 ) ) ;
#48 = DIRECTION ( 'NONE',  ( -0.000000000000000000, -1.000000000000000000, -0.000000000000000000 ) ) ;
#49 = DIRECTION ( 'NONE',  ( 0.000000000000000000, 0.000000000000000000, -1.000000000000000000 ) ) ;
#50 = MECHANICAL_DESIGN_GEOMETRIC_PRESENTATION_REPRESENTATION (  '', ( #171 ), #230 ) ;
#51 = PRESENTATION_STYLE_ASSIGNMENT (( #288 ) ) ;
#52 = UNCERTAINTY_MEASURE_WITH_UNIT (LENGTH_MEASURE( 1.000000000000000082E-05 ), #36, 'distance_accuracy_value', 'NONE');
#53 = CIRCLE ( 'NONE', #24, 0.09800000000000644307 ) ;
#54 = SURFACE_STYLE_FILL_AREA ( #303 ) ;
#55 = CARTESIAN_POINT ( 'NONE',  ( -0.8118988160479115868, 0.000000000000000000, -0.3707499999999882001 ) ) ;
#56 = DIRECTION ( 'NONE',  ( 0.000000000000000000, 0.000000000000000000, -1.000000000000000000 ) ) ;
#57 = EDGE_LOOP ( 'NONE', ( #12 ) ) ;
#58 =( GEOMETRIC_REPRESENTATION_CONTEXT ( 3 ) GLOBAL_UNCERTAINTY_ASSIGNED_CONTEXT ( ( #286 ) ) GLOBAL_UNIT_ASSIGNED_CONTEXT ( ( #314, #78, #156 ) ) REPRESENTATION_CONTEXT ( 'NONE', 'WORKASPACE' ) );
#59 = AXIS2_PLACEMENT_3D ( 'NONE', #298, #61, #106 ) ;
#60 = EDGE_LOOP ( 'NONE', ( #86 ) ) ;
#61 = DIRECTION ( 'NONE',  ( 0.000000000000000000, 0.000000000000000000, 1.000000000000000000 ) ) ;
#62 = CARTESIAN_POINT ( 'NONE',  ( 0.000000000000000000, 0.000000000000000000, -0.8395000000000000240 ) ) ;
#63 = EDGE_LOOP ( 'NONE', ( #8 ) ) ;
#64 = VERTEX_POINT ( 'NONE', #191 ) ;
#65 = FACE_OUTER_BOUND ( 'NONE', #214, .T. ) ;
#66 = EDGE_CURVE ( 'NONE', #64, #64, #157, .T. ) ;
#67 = DIRECTION ( 'NONE',  ( -0.000000000000000000, -1.000000000000000000, -0.000000000000000000 ) ) ;
#68 = AXIS2_PLACEMENT_3D ( 'NONE', #318, #103, #339 ) ;
#69 = DIRECTION ( 'NONE',  ( -0.000000000000000000, -1.000000000000000000, -0.000000000000000000 ) ) ;
#70 = ADVANCED_FACE ( 'NONE', ( #222, #198 ), #40, .F. ) ;
#71 = CARTESIAN_POINT ( 'NONE',  ( 0.000000000000000000, 0.3750000000000000555, -0.9375000000000000000 ) ) ;
#72 = CARTESIAN_POINT ( 'NONE',  ( 1.148106374200641521E-16, 0.3750000000000000555, 0.9375000000000000000 ) ) ;
#73 = AXIS2_PLACEMENT_3D ( 'NONE', #142, #242, #56 ) ;
#74 = ORIENTED_EDGE ( 'NONE', *, *, #340, .F. ) ;
#75 = PLANE ( 'NONE',  #10 ) ;
#76 = AXIS2_PLACEMENT_3D ( 'NONE', #133, #135, #232 ) ;
#77 = DIMENSIONAL_EXPONENTS ( 1.000000000000000000, 0.000000000000000000, 0.000000000000000000, 0.000000000000000000, 0.000000000000000000, 0.000000000000000000, 0.000000000000000000 ) ;
#78 =( NAMED_UNIT ( * ) PLANE_ANGLE_UNIT ( ) SI_UNIT ( $, .RADIAN. ) );
#79 = FACE_OUTER_BOUND ( 'NONE', #138, .T. ) ;
#80 = CARTESIAN_POINT ( 'NONE',  ( 0.8118988160479114757, 0.3750000000000000555, 0.4687499999999998890 ) ) ;
#81 = AXIS2_PLACEMENT_3D ( 'NONE', #25, #82, #263 ) ;
#82 = DIRECTION ( 'NONE',  ( 0.000000000000000000, 1.000000000000000000, 0.000000000000000000 ) ) ;
#83 = DIRECTION ( 'NONE',  ( 0.000000000000000000, 1.000000000000000000, 0.000000000000000000 ) ) ;
#84 = FILL_AREA_STYLE_COLOUR ( '', #323 ) ;
#85 = EDGE_LOOP ( 'NONE', ( #161 ) ) ;
#86 = ORIENTED_EDGE ( 'NONE', *, *, #260, .T. ) ;
#87 = CYLINDRICAL_SURFACE ( 'NONE', #73, 0.09799999999998260103 ) ;
#88 = APPLICATION_CONTEXT ( 'automotive_design' ) ;
#89 = VERTEX_POINT ( 'NONE', #5 ) ;
#90 = FACE_OUTER_BOUND ( 'NONE', #115, .T. ) ;
#91 = CARTESIAN_POINT ( 'NONE',  ( 0.000000000000000000, 0.3750000000000000555, 0.4699999999999999734 ) ) ;
#92 = ORIENTED_EDGE ( 'NONE', *, *, #179, .T. ) ;
#93 = CARTESIAN_POINT ( 'NONE',  ( 0.000000000000000000, 0.3750000000000000555, -0.9375000000000000000 ) ) ;
#94 = DIRECTION ( 'NONE',  ( -0.000000000000000000, -1.000000000000000000, -0.000000000000000000 ) ) ;
#95 = DIRECTION ( 'NONE',  ( 0.000000000000000000, 0.000000000000000000, 1.000000000000000000 ) ) ;
#96 = DIRECTION ( 'NONE',  ( 0.000000000000000000, 0.000000000000000000, 1.000000000000000000 ) ) ;
#97 = EDGE_LOOP ( 'NONE', ( #126 ) ) ;
#98 = CARTESIAN_POINT ( 'NONE',  ( -0.8118988160479110316, 0.000000000000000000, 0.4687500000000004441 ) ) ;
#99 = CIRCLE ( 'NONE', #183, 0.09799999999998260103 ) ;
#100 = CYLINDRICAL_SURFACE ( 'NONE', #101, 0.09800000000000431977 ) ;
#101 = AXIS2_PLACEMENT_3D ( 'NONE', #80, #48, #49 ) ;
#102 = DIRECTION ( 'NONE',  ( 0.000000000000000000, 1.000000000000000000, 0.000000000000000000 ) ) ;
#103 = DIRECTION ( 'NONE',  ( 0.000000000000000000, 1.000000000000000000, 0.000000000000000000 ) ) ;
#104 = AXIS2_PLACEMENT_3D ( 'NONE', #98, #121, #202 ) ;
#105 = CARTESIAN_POINT ( 'NONE',  ( 0.000000000000000000, 0.3750000000000000555, 0.000000000000000000 ) ) ;
#106 = DIRECTION ( 'NONE',  ( 1.000000000000000000, 0.000000000000000000, 0.000000000000000000 ) ) ;
#107 =( NAMED_UNIT ( * ) PLANE_ANGLE_UNIT ( ) SI_UNIT ( $, .RADIAN. ) );
#108 = AXIS2_PLACEMENT_3D ( 'NONE', #332, #283, #96 ) ;
#109 = APPLICATION_PROTOCOL_DEFINITION ( 'draft international standard', 'automotive_design', 1998, #88 ) ;
#110 = CARTESIAN_POINT ( 'NONE',  ( 0.8118988160479382321, 0.000000000000000000, -0.3707500000000175655 ) ) ;
#111 = EDGE_LOOP ( 'NONE', ( #139 ) ) ;
#112 = VERTEX_POINT ( 'NONE', #300 ) ;
#113 = EDGE_LOOP ( 'NONE', ( #92 ) ) ;
#114 = VERTEX_POINT ( 'NONE', #327 ) ;
#115 = EDGE_LOOP ( 'NONE', ( #265 ) ) ;
#116 = ADVANCED_FACE ( 'NONE', ( #334, #42 ), #333, .F. ) ;
#117 = ORIENTED_EDGE ( 'NONE', *, *, #187, .T. ) ;
#118 = CIRCLE ( 'NONE', #313, 0.09800000000001114764 ) ;
#119 =( NAMED_UNIT ( * ) PLANE_ANGLE_UNIT ( ) SI_UNIT ( $, .RADIAN. ) );
#120 = ORIENTED_EDGE ( 'NONE', *, *, #299, .F. ) ;
#121 = DIRECTION ( 'NONE',  ( 0.000000000000000000, 1.000000000000000000, 0.000000000000000000 ) ) ;
#122 = ADVANCED_BREP_SHAPE_REPRESENTATION ( 'am-4019 Stealth Wheel FlyWheel', ( #233, #59 ), #132 ) ;
#123 = MECHANICAL_DESIGN_GEOMETRIC_PRESENTATION_REPRESENTATION (  '', ( #296 ), #58 ) ;
#124 = DIRECTION ( 'NONE',  ( 0.000000000000000000, 0.000000000000000000, 1.000000000000000000 ) ) ;
#125 = CARTESIAN_POINT ( 'NONE',  ( 0.000000000000000000, 0.000000000000000000, 0.000000000000000000 ) ) ;
#126 = ORIENTED_EDGE ( 'NONE', *, *, #199, .F. ) ;
#127 = DIRECTION ( 'NONE',  ( 0.000000000000000000, 0.000000000000000000, 1.000000000000000000 ) ) ;
#128 = EDGE_CURVE ( 'NONE', #213, #213, #275, .T. ) ;
#129 = CARTESIAN_POINT ( 'NONE',  ( -0.8118988160479115868, 0.3750000000000000555, -0.4687499999999993339 ) ) ;
#130 = CIRCLE ( 'NONE', #249, 0.09799999999998260103 ) ;
#131 = SURFACE_SIDE_STYLE ('',( #54 ) ) ;
#132 =( GEOMETRIC_REPRESENTATION_CONTEXT ( 3 ) GLOBAL_UNCERTAINTY_ASSIGNED_CONTEXT ( ( #205 ) ) GLOBAL_UNIT_ASSIGNED_CONTEXT ( ( #243, #107, #9 ) ) REPRESENTATION_CONTEXT ( 'NONE', 'WORKASPACE' ) );
#133 = CARTESIAN_POINT ( 'NONE',  ( 0.000000000000000000, 0.3750000000000000555, 0.000000000000000000 ) ) ;
#134 = CARTESIAN_POINT ( 'NONE',  ( -0.8118988160479115868, 0.000000000000000000, -0.4687499999999993339 ) ) ;
#135 = DIRECTION ( 'NONE',  ( -0.000000000000000000, -1.000000000000000000, -0.000000000000000000 ) ) ;
#136 = VERTEX_POINT ( 'NONE', #166 ) ;
#137 = VERTEX_POINT ( 'NONE', #62 ) ;
#138 = EDGE_LOOP ( 'NONE', ( #17 ) ) ;
#139 = ORIENTED_EDGE ( 'NONE', *, *, #163, .T. ) ;
#140 = AXIS2_PLACEMENT_3D ( 'NONE', #226, #290, #343 ) ;
#141 = CARTESIAN_POINT ( 'NONE',  ( -0.8118988160479115868, 0.3750000000000000555, -0.3707499999999882001 ) ) ;
#142 = CARTESIAN_POINT ( 'NONE',  ( 0.8118988160479382321, 0.3750000000000000555, -0.4687500000000001665 ) ) ;
#143 = PRODUCT_DEFINITION ( 'UNKNOWN', '', #238, #256 ) ;
#144 = EDGE_LOOP ( 'NONE', ( #44 ) ) ;
#145 = CIRCLE ( 'NONE', #228, 0.09800000000000431977 ) ;
#146 = LENGTH_MEASURE_WITH_UNIT ( LENGTH_MEASURE( 0.02539999999999999897 ), #189 );
#147 = EDGE_LOOP ( 'NONE', ( #185 ) ) ;
#148 = DIRECTION ( 'NONE',  ( 0.000000000000000000, -0.000000000000000000, 1.000000000000000000 ) ) ;
#149 = DIRECTION ( 'NONE',  ( 0.000000000000000000, 1.000000000000000000, 0.000000000000000000 ) ) ;
#150 = DIRECTION ( 'NONE',  ( 0.000000000000000000, 1.000000000000000000, 0.000000000000000000 ) ) ;
#151 = DIRECTION ( 'NONE',  ( 0.000000000000000000, 1.000000000000000000, 0.000000000000000000 ) ) ;
#152 = ADVANCED_FACE ( 'NONE', ( #278, #224, #173, #279, #18, #337, #218, #246 ), #75, .F. ) ;
#153 = CARTESIAN_POINT ( 'NONE',  ( 0.8118988160479382321, 0.3750000000000000555, -0.4687500000000001665 ) ) ;
#154 = DIRECTION ( 'NONE',  ( 0.000000000000000000, 0.000000000000000000, 1.000000000000000000 ) ) ;
#155 =( LENGTH_UNIT ( ) NAMED_UNIT ( * ) SI_UNIT ( $, .METRE. ) );
#156 =( NAMED_UNIT ( * ) SI_UNIT ( $, .STERADIAN. ) SOLID_ANGLE_UNIT ( ) );
#157 = CIRCLE ( 'NONE', #261, 0.09800000000000644307 ) ;
#158 = ORIENTED_EDGE ( 'NONE', *, *, #220, .T. ) ;
#159 = CIRCLE ( 'NONE', #68, 0.4699999999999999734 ) ;
#160 = PRODUCT_CONTEXT ( 'NONE', #320, 'mechanical' ) ;
#161 = ORIENTED_EDGE ( 'NONE', *, *, #187, .F. ) ;
#162 = EDGE_LOOP ( 'NONE', ( #186 ) ) ;
#163 = EDGE_CURVE ( 'NONE', #1, #1, #53, .T. ) ;
#164 = VERTEX_POINT ( 'NONE', #110 ) ;
#165 = EDGE_LOOP ( 'NONE', ( #158 ) ) ;
#166 = CARTESIAN_POINT ( 'NONE',  ( 0.000000000000000000, 0.000000000000000000, 1.649999999999999911 ) ) ;
#167 = ORIENTED_EDGE ( 'NONE', *, *, #128, .F. ) ;
#168 = CYLINDRICAL_SURFACE ( 'NONE', #215, 0.09800000000000876066 ) ;
#169 = AXIS2_PLACEMENT_3D ( 'NONE', #125, #253, #331 ) ;
#170 = DIRECTION ( 'NONE',  ( 0.000000000000000000, 0.000000000000000000, 1.000000000000000000 ) ) ;
#171 = STYLED_ITEM ( 'NONE', ( #31 ), #122 ) ;
#172 = CARTESIAN_POINT ( 'NONE',  ( 1.148106374200641521E-16, 0.000000000000000000, 0.9375000000000000000 ) ) ;
#173 = FACE_BOUND ( 'NONE', #269, .T. ) ;
#174 = EDGE_LOOP ( 'NONE', ( #2 ) ) ;
#175 = CIRCLE ( 'NONE', #210, 0.09800000000000001765 ) ;
#176 = CARTESIAN_POINT ( 'NONE',  ( 1.148106374200641521E-16, 0.3750000000000000555, 0.9375000000000000000 ) ) ;
#177 = AXIS2_PLACEMENT_3D ( 'NONE', #105, #344, #341 ) ;
#178 = CYLINDRICAL_SURFACE ( 'NONE', #304, 0.09800000000001114764 ) ;
#179 = EDGE_CURVE ( 'NONE', #89, #89, #254, .T. ) ;
#180 = FACE_BOUND ( 'NONE', #162, .T. ) ;
#181 = FACE_OUTER_BOUND ( 'NONE', #63, .T. ) ;
#182 = EDGE_CURVE ( 'NONE', #164, #164, #99, .T. ) ;
#183 = AXIS2_PLACEMENT_3D ( 'NONE', #15, #197, #13 ) ;
#184 = VERTEX_POINT ( 'NONE', #7 ) ;
#185 = ORIENTED_EDGE ( 'NONE', *, *, #199, .T. ) ;
#186 = ORIENTED_EDGE ( 'NONE', *, *, #260, .F. ) ;
#187 = EDGE_CURVE ( 'NONE', #239, #239, #289, .T. ) ;
#188 = PRODUCT_DEFINITION_SHAPE ( 'NONE', 'NONE',  #143 ) ;
#189 =( LENGTH_UNIT ( ) NAMED_UNIT ( * ) SI_UNIT ( $, .METRE. ) );
#190 = ORIENTED_EDGE ( 'NONE', *, *, #66, .F. ) ;
#191 = CARTESIAN_POINT ( 'NONE',  ( 1.148106374200641521E-16, 0.3750000000000000555, 1.035500000000006526 ) ) ;
#192 = FACE_OUTER_BOUND ( 'NONE', #217, .T. ) ;
#193 = AXIS2_PLACEMENT_3D ( 'NONE', #255, #102, #206 ) ;
#194 = SURFACE_STYLE_FILL_AREA ( #295 ) ;
#195 = ORIENTED_EDGE ( 'NONE', *, *, #66, .T. ) ;
#196 = FILL_AREA_STYLE_COLOUR ( '', #267 ) ;
#197 = DIRECTION ( 'NONE',  ( 0.000000000000000000, 1.000000000000000000, 0.000000000000000000 ) ) ;
#198 = FACE_OUTER_BOUND ( 'NONE', #244, .T. ) ;
#199 = EDGE_CURVE ( 'NONE', #241, #241, #145, .T. ) ;
#200 = CARTESIAN_POINT ( 'NONE',  ( 0.000000000000000000, 0.000000000000000000, 0.000000000000000000 ) ) ;
#201 = AXIS2_PLACEMENT_3D ( 'NONE', #307, #305, #39 ) ;
#202 = DIRECTION ( 'NONE',  ( 0.000000000000000000, 0.000000000000000000, 1.000000000000000000 ) ) ;
#203 = FACE_BOUND ( 'NONE', #97, .T. ) ;
#204 = DIRECTION ( 'NONE',  ( 0.000000000000000000, -0.000000000000000000, 1.000000000000000000 ) ) ;
#205 = UNCERTAINTY_MEASURE_WITH_UNIT (LENGTH_MEASURE( 1.000000000000000082E-05 ), #243, 'distance_accuracy_value', 'NONE');
#206 = DIRECTION ( 'NONE',  ( 0.000000000000000000, 0.000000000000000000, 1.000000000000000000 ) ) ;
#207 = AXIS2_PLACEMENT_3D ( 'NONE', #71, #94, #251 ) ;
#208 = EDGE_LOOP ( 'NONE', ( #117 ) ) ;
#209 = ADVANCED_FACE ( 'NONE', ( #219, #312 ), #178, .F. ) ;
#210 = AXIS2_PLACEMENT_3D ( 'NONE', #93, #284, #154 ) ;
#211 = VERTEX_POINT ( 'NONE', #91 ) ;
#212 = FACE_OUTER_BOUND ( 'NONE', #85, .T. ) ;
#213 = VERTEX_POINT ( 'NONE', #141 ) ;
#214 = EDGE_LOOP ( 'NONE', ( #252 ) ) ;
#215 = AXIS2_PLACEMENT_3D ( 'NONE', #274, #237, #326 ) ;
#216 = EDGE_LOOP ( 'NONE', ( #302 ) ) ;
#217 = EDGE_LOOP ( 'NONE', ( #235 ) ) ;
#218 = FACE_BOUND ( 'NONE', #208, .T. ) ;
#219 = FACE_OUTER_BOUND ( 'NONE', #38, .T. ) ;
#220 = EDGE_CURVE ( 'NONE', #184, #184, #130, .T. ) ;
#221 = CIRCLE ( 'NONE', #140, 0.09800000000000001765 ) ;
#222 = FACE_OUTER_BOUND ( 'NONE', #310, .T. ) ;
#223 = EDGE_LOOP ( 'NONE', ( #195 ) ) ;
#224 = FACE_BOUND ( 'NONE', #57, .T. ) ;
#225 = FACE_BOUND ( 'NONE', #335, .T. ) ;
#226 = CARTESIAN_POINT ( 'NONE',  ( 0.000000000000000000, 0.000000000000000000, -0.9375000000000000000 ) ) ;
#227 = FACE_OUTER_BOUND ( 'NONE', #29, .T. ) ;
#228 = AXIS2_PLACEMENT_3D ( 'NONE', #14, #149, #124 ) ;
#229 = FACE_OUTER_BOUND ( 'NONE', #216, .T. ) ;
#230 =( GEOMETRIC_REPRESENTATION_CONTEXT ( 3 ) GLOBAL_UNCERTAINTY_ASSIGNED_CONTEXT ( ( #52 ) ) GLOBAL_UNIT_ASSIGNED_CONTEXT ( ( #36, #119, #3 ) ) REPRESENTATION_CONTEXT ( 'NONE', 'WORKASPACE' ) );
#231 = EDGE_CURVE ( 'NONE', #114, #114, #322, .T. ) ;
#232 = DIRECTION ( 'NONE',  ( 0.000000000000000000, 0.000000000000000000, -1.000000000000000000 ) ) ;
#233 = MANIFOLD_SOLID_BREP ( 'Boss-Extrude1', #37 ) ;
#234 = SURFACE_STYLE_USAGE ( .BOTH. , #266 ) ;
#235 = ORIENTED_EDGE ( 'NONE', *, *, #163, .F. ) ;
#236 = CARTESIAN_POINT ( 'NONE',  ( 0.000000000000000000, 0.3750000000000000555, 1.649999999999999911 ) ) ;
#237 = DIRECTION ( 'NONE',  ( -0.000000000000000000, -1.000000000000000000, -0.000000000000000000 ) ) ;
#238 = PRODUCT_DEFINITION_FORMATION_WITH_SPECIFIED_SOURCE ( 'ANY', '', #347, .NOT_KNOWN. ) ;
#239 = VERTEX_POINT ( 'NONE', #264 ) ;
#240 = ORIENTED_EDGE ( 'NONE', *, *, #182, .T. ) ;
#241 = VERTEX_POINT ( 'NONE', #28 ) ;
#242 = DIRECTION ( 'NONE',  ( -0.000000000000000000, -1.000000000000000000, -0.000000000000000000 ) ) ;
#243 =( CONVERSION_BASED_UNIT ( 'INCH', #34 ) LENGTH_UNIT ( ) NAMED_UNIT ( #77 ) );
#244 = EDGE_LOOP ( 'NONE', ( #32 ) ) ;
#245 = ORIENTED_EDGE ( 'NONE', *, *, #128, .T. ) ;
#246 = FACE_BOUND ( 'NONE', #11, .T. ) ;
#247 = PRODUCT_RELATED_PRODUCT_CATEGORY ( 'part', '', ( #347 ) ) ;
#248 = DIRECTION ( 'NONE',  ( 0.000000000000000000, 0.000000000000000000, -1.000000000000000000 ) ) ;
#249 = AXIS2_PLACEMENT_3D ( 'NONE', #153, #47, #95 ) ;
#250 = DIRECTION ( 'NONE',  ( 0.000000000000000000, 0.000000000000000000, 1.000000000000000000 ) ) ;
#251 = DIRECTION ( 'NONE',  ( 0.000000000000000000, 0.000000000000000000, -1.000000000000000000 ) ) ;
#252 = ORIENTED_EDGE ( 'NONE', *, *, #311, .T. ) ;
#253 = DIRECTION ( 'NONE',  ( 0.000000000000000000, 1.000000000000000000, 0.000000000000000000 ) ) ;
#254 = CIRCLE ( 'NONE', #108, 0.09800000000000431977 ) ;
#255 = CARTESIAN_POINT ( 'NONE',  ( -0.8118988160479110316, 0.3750000000000000555, 0.4687500000000004441 ) ) ;
#256 = PRODUCT_DEFINITION_CONTEXT ( 'detailed design', #88, 'design' ) ;
#257 = CIRCLE ( 'NONE', #81, 1.649999999999999911 ) ;
#258 = CARTESIAN_POINT ( 'NONE',  ( 0.000000000000000000, 0.3750000000000000555, 0.000000000000000000 ) ) ;
#259 = PLANE ( 'NONE',  #46 ) ;
#260 = EDGE_CURVE ( 'NONE', #112, #112, #175, .T. ) ;
#261 = AXIS2_PLACEMENT_3D ( 'NONE', #72, #281, #127 ) ;
#262 = ORIENTED_EDGE ( 'NONE', *, *, #277, .F. ) ;
#263 = DIRECTION ( 'NONE',  ( 0.000000000000000000, 0.000000000000000000, 1.000000000000000000 ) ) ;
#264 = CARTESIAN_POINT ( 'NONE',  ( -0.8118988160479110316, 0.000000000000000000, 0.5667500000000091909 ) ) ;
#265 = ORIENTED_EDGE ( 'NONE', *, *, #182, .F. ) ;
#266 = SURFACE_SIDE_STYLE ('',( #194 ) ) ;
#267 = COLOUR_RGB ( '',0.5294117647058823595, 0.5490196078431373028, 0.5490196078431373028 ) ;
#268 = ORIENTED_EDGE ( 'NONE', *, *, #345, .T. ) ;
#269 = EDGE_LOOP ( 'NONE', ( #271 ) ) ;
#270 = VERTEX_POINT ( 'NONE', #55 ) ;
#271 = ORIENTED_EDGE ( 'NONE', *, *, #231, .T. ) ;
#272 = EDGE_CURVE ( 'NONE', #211, #211, #159, .T. ) ;
#273 =( LENGTH_UNIT ( ) NAMED_UNIT ( * ) SI_UNIT ( $, .METRE. ) );
#274 = CARTESIAN_POINT ( 'NONE',  ( -0.8118988160479110316, 0.3750000000000000555, 0.4687500000000004441 ) ) ;
#275 = CIRCLE ( 'NONE', #317, 0.09800000000001114764 ) ;
#276 = DIRECTION ( 'NONE',  ( 0.000000000000000000, 1.000000000000000000, 0.000000000000000000 ) ) ;
#277 = EDGE_CURVE ( 'NONE', #137, #137, #221, .T. ) ;
#278 = FACE_OUTER_BOUND ( 'NONE', #330, .T. ) ;
#279 = FACE_BOUND ( 'NONE', #282, .T. ) ;
#280 = EDGE_LOOP ( 'NONE', ( #35 ) ) ;
#281 = DIRECTION ( 'NONE',  ( 0.000000000000000000, 1.000000000000000000, 0.000000000000000000 ) ) ;
#282 = EDGE_LOOP ( 'NONE', ( #240 ) ) ;
#283 = DIRECTION ( 'NONE',  ( 0.000000000000000000, 1.000000000000000000, 0.000000000000000000 ) ) ;
#284 = DIRECTION ( 'NONE',  ( 0.000000000000000000, 1.000000000000000000, 0.000000000000000000 ) ) ;
#285 = CYLINDRICAL_SURFACE ( 'NONE', #76, 1.649999999999999911 ) ;
#286 = UNCERTAINTY_MEASURE_WITH_UNIT (LENGTH_MEASURE( 1.000000000000000082E-05 ), #314, 'distance_accuracy_value', 'NONE');
#287 = ADVANCED_FACE ( 'NONE', ( #321, #229 ), #100, .F. ) ;
#288 = SURFACE_STYLE_USAGE ( .BOTH. , #131 ) ;
#289 = CIRCLE ( 'NONE', #104, 0.09800000000000876066 ) ;
#290 = DIRECTION ( 'NONE',  ( 0.000000000000000000, 1.000000000000000000, 0.000000000000000000 ) ) ;
#291 = CARTESIAN_POINT ( 'NONE',  ( -0.8118988160479110316, 0.3750000000000000555, 0.5667500000000091909 ) ) ;
#292 = FACE_OUTER_BOUND ( 'NONE', #165, .T. ) ;
#293 = VERTEX_POINT ( 'NONE', #291 ) ;
#294 = ORIENTED_EDGE ( 'NONE', *, *, #311, .F. ) ;
#295 = FILL_AREA_STYLE ('',( #84 ) ) ;
#296 = STYLED_ITEM ( 'NONE', ( #51 ), #233 ) ;
#297 = EDGE_LOOP ( 'NONE', ( #167 ) ) ;
#298 = CARTESIAN_POINT ( 'NONE',  ( 0.000000000000000000, 0.000000000000000000, 0.000000000000000000 ) ) ;
#299 = EDGE_CURVE ( 'NONE', #136, #136, #257, .T. ) ;
#300 = CARTESIAN_POINT ( 'NONE',  ( 0.000000000000000000, 0.3750000000000000555, -0.8395000000000000240 ) ) ;
#301 = VERTEX_POINT ( 'NONE', #236 ) ;
#302 = ORIENTED_EDGE ( 'NONE', *, *, #179, .F. ) ;
#303 = FILL_AREA_STYLE ('',( #196 ) ) ;
#304 = AXIS2_PLACEMENT_3D ( 'NONE', #129, #67, #308 ) ;
#305 = DIRECTION ( 'NONE',  ( -0.000000000000000000, -1.000000000000000000, -0.000000000000000000 ) ) ;
#306 = PRESENTATION_LAYER_ASSIGNMENT (  '', '', ( #171 ) ) ;
#307 = CARTESIAN_POINT ( 'NONE',  ( 0.000000000000000000, 0.3750000000000000555, 0.000000000000000000 ) ) ;
#308 = DIRECTION ( 'NONE',  ( 0.000000000000000000, 0.000000000000000000, -1.000000000000000000 ) ) ;
#309 = DIMENSIONAL_EXPONENTS ( 1.000000000000000000, 0.000000000000000000, 0.000000000000000000, 0.000000000000000000, 0.000000000000000000, 0.000000000000000000, 0.000000000000000000 ) ;
#310 = EDGE_LOOP ( 'NONE', ( #6 ) ) ;
#311 = EDGE_CURVE ( 'NONE', #293, #293, #4, .T. ) ;
#312 = FACE_OUTER_BOUND ( 'NONE', #280, .T. ) ;
#313 = AXIS2_PLACEMENT_3D ( 'NONE', #134, #83, #319 ) ;
#314 =( CONVERSION_BASED_UNIT ( 'INCH', #338 ) LENGTH_UNIT ( ) NAMED_UNIT ( #309 ) );
#315 = FACE_BOUND ( 'NONE', #297, .T. ) ;
#316 = ADVANCED_FACE ( 'NONE', ( #27, #203, #20, #181, #180, #22, #225, #315 ), #259, .T. ) ;
#317 = AXIS2_PLACEMENT_3D ( 'NONE', #45, #151, #170 ) ;
#318 = CARTESIAN_POINT ( 'NONE',  ( 0.000000000000000000, 0.3750000000000000555, 0.000000000000000000 ) ) ;
#319 = DIRECTION ( 'NONE',  ( 0.000000000000000000, 0.000000000000000000, 1.000000000000000000 ) ) ;
#320 = APPLICATION_CONTEXT ( 'automotive_design' ) ;
#321 = FACE_OUTER_BOUND ( 'NONE', #147, .T. ) ;
#322 = CIRCLE ( 'NONE', #169, 0.4699999999999999734 ) ;
#323 = COLOUR_RGB ( '',0.5294117647058823595, 0.5490196078431373028, 0.5490196078431373028 ) ;
#324 = EDGE_LOOP ( 'NONE', ( #262 ) ) ;
#325 = SHAPE_DEFINITION_REPRESENTATION ( #188, #122 ) ;
#326 = DIRECTION ( 'NONE',  ( 0.000000000000000000, 0.000000000000000000, -1.000000000000000000 ) ) ;
#327 = CARTESIAN_POINT ( 'NONE',  ( 0.000000000000000000, 0.000000000000000000, 0.4699999999999999734 ) ) ;
#328 = FACE_OUTER_BOUND ( 'NONE', #223, .T. ) ;
#329 = APPLICATION_PROTOCOL_DEFINITION ( 'draft international standard', 'automotive_design', 1998, #320 ) ;
#330 = EDGE_LOOP ( 'NONE', ( #120 ) ) ;
#331 = DIRECTION ( 'NONE',  ( 0.000000000000000000, 0.000000000000000000, 1.000000000000000000 ) ) ;
#332 = CARTESIAN_POINT ( 'NONE',  ( 0.8118988160479114757, 0.000000000000000000, 0.4687499999999998890 ) ) ;
#333 = CYLINDRICAL_SURFACE ( 'NONE', #207, 0.09800000000000001765 ) ;
#334 = FACE_OUTER_BOUND ( 'NONE', #60, .T. ) ;
#335 = EDGE_LOOP ( 'NONE', ( #190 ) ) ;
#336 = ADVANCED_FACE ( 'NONE', ( #227, #79 ), #285, .T. ) ;
#337 = FACE_BOUND ( 'NONE', #111, .T. ) ;
#338 = LENGTH_MEASURE_WITH_UNIT ( LENGTH_MEASURE( 0.02539999999999999897 ), #155 );
#339 = DIRECTION ( 'NONE',  ( 0.000000000000000000, 0.000000000000000000, 1.000000000000000000 ) ) ;
#340 = EDGE_CURVE ( 'NONE', #301, #301, #21, .T. ) ;
#341 = DIRECTION ( 'NONE',  ( 0.000000000000000000, 0.000000000000000000, 1.000000000000000000 ) ) ;
#342 = PRESENTATION_LAYER_ASSIGNMENT (  '', '', ( #296 ) ) ;
#343 = DIRECTION ( 'NONE',  ( 0.000000000000000000, 0.000000000000000000, 1.000000000000000000 ) ) ;
#344 = DIRECTION ( 'NONE',  ( 0.000000000000000000, 1.000000000000000000, 0.000000000000000000 ) ) ;
#345 = EDGE_CURVE ( 'NONE', #270, #270, #118, .T. ) ;
#346 = CARTESIAN_POINT ( 'NONE',  ( 1.148106374200641521E-16, 0.000000000000000000, 1.035500000000006526 ) ) ;
#347 = PRODUCT ( 'am-4019 Stealth Wheel FlyWheel', 'am-4019 Stealth Wheel FlyWheel', '', ( #160 ) ) ;
ENDSEC;
END-ISO-10303-21;
