ISO-10303-21;
HEADER;
FILE_DESCRIPTION (( 'STEP AP214' ),
    '1' );
FILE_NAME ('am-4553_Red Shipping Hub Sleeve.STEP',
    '2021-09-02T19:57:33',
    ( '' ),
    ( '' ),
    'SwSTEP 2.0',
    'SolidWorks 2021',
    '' );
FILE_SCHEMA (( 'AUTOMOTIVE_DESIGN' ));
ENDSEC;

DATA;
#1 = CARTESIAN_POINT ( 'NONE',  ( 0.000000000000000000, -2.600000000000000089, 0.000000000000000000 ) ) ;
#2 =( LENGTH_UNIT ( ) NAMED_UNIT ( * ) SI_UNIT ( $, .METRE. ) );
#3 = EDGE_CURVE ( 'NONE', #200, #26, #7, .T. ) ;
#4 = FACE_OUTER_BOUND ( 'NONE', #77, .T. ) ;
#5 = ORIENTED_EDGE ( 'NONE', *, *, #160, .F. ) ;
#6 = ORIENTED_EDGE ( 'NONE', *, *, #51, .T. ) ;
#7 = CIRCLE ( 'NONE', #186, 0.6574999999999999734 ) ;
#8 = EDGE_LOOP ( 'NONE', ( #44, #185, #61, #6 ) ) ;
#9 = VERTEX_POINT ( 'NONE', #80 ) ;
#10 = DIRECTION ( 'NONE',  ( 0.000000000000000000, -0.000000000000000000, 1.000000000000000000 ) ) ;
#11 = DIRECTION ( 'NONE',  ( -0.000000000000000000, -1.000000000000000000, -0.000000000000000000 ) ) ;
#12 = DIRECTION ( 'NONE',  ( -0.000000000000000000, -1.000000000000000000, -0.000000000000000000 ) ) ;
#13 = AXIS2_PLACEMENT_3D ( 'NONE', #121, #34, #92 ) ;
#14 = DIRECTION ( 'NONE',  ( 0.000000000000000000, 0.000000000000000000, -1.000000000000000000 ) ) ;
#15 = EDGE_CURVE ( 'NONE', #26, #200, #33, .T. ) ;
#16 = DIRECTION ( 'NONE',  ( 0.000000000000000000, 1.000000000000000000, 0.000000000000000000 ) ) ;
#17 = SURFACE_SIDE_STYLE ('',( #141 ) ) ;
#18 = VECTOR ( 'NONE', #12, 39.37007874015748143 ) ;
#19 =( NAMED_UNIT ( * ) SI_UNIT ( $, .STERADIAN. ) SOLID_ANGLE_UNIT ( ) );
#20 = CARTESIAN_POINT ( 'NONE',  ( 0.000000000000000000, 2.600000000000000089, -0.6574999999999999734 ) ) ;
#21 = LINE ( 'NONE', #222, #18 ) ;
#22 = ORIENTED_EDGE ( 'NONE', *, *, #85, .T. ) ;
#23 = VERTEX_POINT ( 'NONE', #146 ) ;
#24 = ORIENTED_EDGE ( 'NONE', *, *, #160, .T. ) ;
#25 =( GEOMETRIC_REPRESENTATION_CONTEXT ( 3 ) GLOBAL_UNCERTAINTY_ASSIGNED_CONTEXT ( ( #101 ) ) GLOBAL_UNIT_ASSIGNED_CONTEXT ( ( #32, #148, #201 ) ) REPRESENTATION_CONTEXT ( 'NONE', 'WORKASPACE' ) );
#26 = VERTEX_POINT ( 'NONE', #187 ) ;
#27 = CARTESIAN_POINT ( 'NONE',  ( 0.000000000000000000, -2.600000000000000089, -0.6574999999999999734 ) ) ;
#28 = FACE_OUTER_BOUND ( 'NONE', #126, .T. ) ;
#29 = AXIS2_PLACEMENT_3D ( 'NONE', #84, #149, #220 ) ;
#30 = DIRECTION ( 'NONE',  ( 0.000000000000000000, 0.000000000000000000, -1.000000000000000000 ) ) ;
#31 = ADVANCED_FACE ( 'NONE', ( #4, #159 ), #144, .T. ) ;
#32 =( CONVERSION_BASED_UNIT ( 'INCH', #219 ) LENGTH_UNIT ( ) NAMED_UNIT ( #74 ) );
#33 = CIRCLE ( 'NONE', #173, 0.6574999999999999734 ) ;
#34 = DIRECTION ( 'NONE',  ( 0.000000000000000000, 0.000000000000000000, 1.000000000000000000 ) ) ;
#35 = SURFACE_STYLE_USAGE ( .BOTH. , #17 ) ;
#36 = LENGTH_MEASURE_WITH_UNIT ( LENGTH_MEASURE( 0.02539999999999999897 ), #2 );
#37 = ADVANCED_FACE ( 'NONE', ( #216 ), #64, .F. ) ;
#38 = ORIENTED_EDGE ( 'NONE', *, *, #40, .T. ) ;
#39 = EDGE_LOOP ( 'NONE', ( #145, #60, #102, #198 ) ) ;
#40 = EDGE_CURVE ( 'NONE', #9, #23, #21, .T. ) ;
#41 = APPLICATION_CONTEXT ( 'automotive_design' ) ;
#42 = ORIENTED_EDGE ( 'NONE', *, *, #110, .T. ) ;
#43 = UNCERTAINTY_MEASURE_WITH_UNIT (LENGTH_MEASURE( 1.000000000000000082E-05 ), #73, 'distance_accuracy_value', 'NONE');
#44 = ORIENTED_EDGE ( 'NONE', *, *, #85, .F. ) ;
#45 = CIRCLE ( 'NONE', #29, 0.5374999999999999778 ) ;
#46 = EDGE_CURVE ( 'NONE', #199, #127, #168, .T. ) ;
#47 = SURFACE_SIDE_STYLE ('',( #221 ) ) ;
#48 = FACE_BOUND ( 'NONE', #95, .T. ) ;
#49 = PRODUCT_DEFINITION_FORMATION_WITH_SPECIFIED_SOURCE ( 'ANY', '', #170, .NOT_KNOWN. ) ;
#50 = FACE_OUTER_BOUND ( 'NONE', #8, .T. ) ;
#51 = EDGE_CURVE ( 'NONE', #127, #199, #88, .T. ) ;
#52 = CARTESIAN_POINT ( 'NONE',  ( 0.000000000000000000, -2.600000000000000089, 0.000000000000000000 ) ) ;
#53 =( NAMED_UNIT ( * ) PLANE_ANGLE_UNIT ( ) SI_UNIT ( $, .RADIAN. ) );
#54 = DIRECTION ( 'NONE',  ( 0.000000000000000000, 0.000000000000000000, 1.000000000000000000 ) ) ;
#55 = AXIS2_PLACEMENT_3D ( 'NONE', #1, #195, #72 ) ;
#56 = PRESENTATION_LAYER_ASSIGNMENT (  '', '', ( #197 ) ) ;
#57 = ADVANCED_FACE ( 'NONE', ( #50 ), #169, .T. ) ;
#58 = EDGE_LOOP ( 'NONE', ( #5, #113 ) ) ;
#59 = AXIS2_PLACEMENT_3D ( 'NONE', #106, #16, #54 ) ;
#60 = ORIENTED_EDGE ( 'NONE', *, *, #166, .T. ) ;
#61 = ORIENTED_EDGE ( 'NONE', *, *, #215, .T. ) ;
#62 = DIMENSIONAL_EXPONENTS ( 1.000000000000000000, 0.000000000000000000, 0.000000000000000000, 0.000000000000000000, 0.000000000000000000, 0.000000000000000000, 0.000000000000000000 ) ;
#63 = PRODUCT_DEFINITION_CONTEXT ( 'detailed design', #41, 'design' ) ;
#64 = CYLINDRICAL_SURFACE ( 'NONE', #163, 0.5374999999999999778 ) ;
#65 = AXIS2_PLACEMENT_3D ( 'NONE', #202, #118, #120 ) ;
#66 = CARTESIAN_POINT ( 'NONE',  ( 8.052052704393848613E-17, 2.600000000000000089, 0.6574999999999999734 ) ) ;
#67 = AXIS2_PLACEMENT_3D ( 'NONE', #117, #205, #189 ) ;
#68 =( GEOMETRIC_REPRESENTATION_CONTEXT ( 3 ) GLOBAL_UNCERTAINTY_ASSIGNED_CONTEXT ( ( #218 ) ) GLOBAL_UNIT_ASSIGNED_CONTEXT ( ( #174, #178, #19 ) ) REPRESENTATION_CONTEXT ( 'NONE', 'WORKASPACE' ) );
#69 = CARTESIAN_POINT ( 'NONE',  ( 0.000000000000000000, 2.600000000000000089, -0.5374999999999999778 ) ) ;
#70 = SURFACE_STYLE_USAGE ( .BOTH. , #47 ) ;
#71 = DIRECTION ( 'NONE',  ( -0.000000000000000000, -1.000000000000000000, -0.000000000000000000 ) ) ;
#72 = DIRECTION ( 'NONE',  ( 0.000000000000000000, 0.000000000000000000, 1.000000000000000000 ) ) ;
#73 =( CONVERSION_BASED_UNIT ( 'INCH', #36 ) LENGTH_UNIT ( ) NAMED_UNIT ( #180 ) );
#74 = DIMENSIONAL_EXPONENTS ( 1.000000000000000000, 0.000000000000000000, 0.000000000000000000, 0.000000000000000000, 0.000000000000000000, 0.000000000000000000, 0.000000000000000000 ) ;
#75 = CIRCLE ( 'NONE', #55, 0.5374999999999999778 ) ;
#76 = CARTESIAN_POINT ( 'NONE',  ( 0.000000000000000000, 2.600000000000000089, 0.000000000000000000 ) ) ;
#77 = EDGE_LOOP ( 'NONE', ( #210, #214 ) ) ;
#78 = ORIENTED_EDGE ( 'NONE', *, *, #110, .F. ) ;
#79 = APPLICATION_CONTEXT ( 'automotive_design' ) ;
#80 = CARTESIAN_POINT ( 'NONE',  ( 6.582476545417024321E-17, 2.600000000000000089, 0.5374999999999999778 ) ) ;
#81 = VERTEX_POINT ( 'NONE', #69 ) ;
#82 =( LENGTH_UNIT ( ) NAMED_UNIT ( * ) SI_UNIT ( $, .METRE. ) );
#83 = AXIS2_PLACEMENT_3D ( 'NONE', #211, #165, #147 ) ;
#84 = CARTESIAN_POINT ( 'NONE',  ( 0.000000000000000000, 2.600000000000000089, 0.000000000000000000 ) ) ;
#85 = EDGE_CURVE ( 'NONE', #26, #199, #135, .T. ) ;
#86 = CARTESIAN_POINT ( 'NONE',  ( 0.000000000000000000, -2.600000000000000089, 0.000000000000000000 ) ) ;
#87 = DIRECTION ( 'NONE',  ( 0.000000000000000000, 1.000000000000000000, 0.000000000000000000 ) ) ;
#88 = CIRCLE ( 'NONE', #67, 0.6574999999999999734 ) ;
#89 = DIRECTION ( 'NONE',  ( -0.000000000000000000, -1.000000000000000000, -0.000000000000000000 ) ) ;
#90 = DIRECTION ( 'NONE',  ( -0.000000000000000000, -1.000000000000000000, -0.000000000000000000 ) ) ;
#91 = PRODUCT_DEFINITION_SHAPE ( 'NONE', 'NONE',  #179 ) ;
#92 = DIRECTION ( 'NONE',  ( 1.000000000000000000, 0.000000000000000000, 0.000000000000000000 ) ) ;
#93 = CARTESIAN_POINT ( 'NONE',  ( 0.000000000000000000, 2.600000000000000089, -0.6574999999999999734 ) ) ;
#94 = AXIS2_PLACEMENT_3D ( 'NONE', #104, #11, #30 ) ;
#95 = EDGE_LOOP ( 'NONE', ( #42, #161 ) ) ;
#96 = CARTESIAN_POINT ( 'NONE',  ( 0.000000000000000000, 2.600000000000000089, 0.000000000000000000 ) ) ;
#97 = EDGE_LOOP ( 'NONE', ( #24, #38, #78, #183 ) ) ;
#98 = COLOUR_RGB ( '',1.000000000000000000, 0.000000000000000000, 0.000000000000000000 ) ;
#99 = DIRECTION ( 'NONE',  ( 0.000000000000000000, 1.000000000000000000, 0.000000000000000000 ) ) ;
#100 = ADVANCED_BREP_SHAPE_REPRESENTATION ( 'am-4553_Red Shipping Hub Sleeve', ( #124, #13 ), #68 ) ;
#101 = UNCERTAINTY_MEASURE_WITH_UNIT (LENGTH_MEASURE( 1.000000000000000082E-05 ), #32, 'distance_accuracy_value', 'NONE');
#102 = ORIENTED_EDGE ( 'NONE', *, *, #171, .T. ) ;
#103 = DIRECTION ( 'NONE',  ( -0.000000000000000000, -1.000000000000000000, -0.000000000000000000 ) ) ;
#104 = CARTESIAN_POINT ( 'NONE',  ( 0.000000000000000000, 2.600000000000000089, 0.000000000000000000 ) ) ;
#105 = ADVANCED_FACE ( 'NONE', ( #107, #48 ), #206, .F. ) ;
#106 = CARTESIAN_POINT ( 'NONE',  ( 0.000000000000000000, 2.600000000000000089, 0.000000000000000000 ) ) ;
#107 = FACE_OUTER_BOUND ( 'NONE', #213, .T. ) ;
#108 = MECHANICAL_DESIGN_GEOMETRIC_PRESENTATION_REPRESENTATION (  '', ( #125 ), #25 ) ;
#109 = MECHANICAL_DESIGN_GEOMETRIC_PRESENTATION_REPRESENTATION (  '', ( #197 ), #209 ) ;
#110 = EDGE_CURVE ( 'NONE', #112, #23, #162, .T. ) ;
#111 = DIRECTION ( 'NONE',  ( -0.000000000000000000, -1.000000000000000000, -0.000000000000000000 ) ) ;
#112 = VERTEX_POINT ( 'NONE', #133 ) ;
#113 = ORIENTED_EDGE ( 'NONE', *, *, #166, .F. ) ;
#114 = ORIENTED_EDGE ( 'NONE', *, *, #51, .F. ) ;
#115 = PRESENTATION_LAYER_ASSIGNMENT (  '', '', ( #125 ) ) ;
#116 = DIRECTION ( 'NONE',  ( 0.000000000000000000, 0.000000000000000000, 1.000000000000000000 ) ) ;
#117 = CARTESIAN_POINT ( 'NONE',  ( 0.000000000000000000, -2.600000000000000089, 0.000000000000000000 ) ) ;
#118 = DIRECTION ( 'NONE',  ( -0.000000000000000000, -1.000000000000000000, -0.000000000000000000 ) ) ;
#119 = FILL_AREA_STYLE ('',( #150 ) ) ;
#120 = DIRECTION ( 'NONE',  ( 0.000000000000000000, 0.000000000000000000, -1.000000000000000000 ) ) ;
#121 = CARTESIAN_POINT ( 'NONE',  ( 0.000000000000000000, 0.000000000000000000, 0.000000000000000000 ) ) ;
#122 =( NAMED_UNIT ( * ) SI_UNIT ( $, .STERADIAN. ) SOLID_ANGLE_UNIT ( ) );
#123 = CARTESIAN_POINT ( 'NONE',  ( 0.000000000000000000, 2.600000000000000089, -0.5374999999999999778 ) ) ;
#124 = MANIFOLD_SOLID_BREP ( 'Boss-Extrude1', #204 ) ;
#125 = STYLED_ITEM ( 'NONE', ( #132 ), #124 ) ;
#126 = EDGE_LOOP ( 'NONE', ( #128, #22, #143, #158 ) ) ;
#127 = VERTEX_POINT ( 'NONE', #27 ) ;
#128 = ORIENTED_EDGE ( 'NONE', *, *, #15, .F. ) ;
#129 = ADVANCED_FACE ( 'NONE', ( #167 ), #191, .F. ) ;
#130 = DIRECTION ( 'NONE',  ( 0.000000000000000000, 1.000000000000000000, 0.000000000000000000 ) ) ;
#131 = CARTESIAN_POINT ( 'NONE',  ( 0.000000000000000000, 2.600000000000000089, 0.000000000000000000 ) ) ;
#132 = PRESENTATION_STYLE_ASSIGNMENT (( #70 ) ) ;
#133 = CARTESIAN_POINT ( 'NONE',  ( 0.000000000000000000, -2.600000000000000089, -0.5374999999999999778 ) ) ;
#134 = DIRECTION ( 'NONE',  ( 0.000000000000000000, 0.000000000000000000, 1.000000000000000000 ) ) ;
#135 = LINE ( 'NONE', #66, #217 ) ;
#136 = ADVANCED_FACE ( 'NONE', ( #28 ), #203, .T. ) ;
#137 = CARTESIAN_POINT ( 'NONE',  ( 8.052052704393848613E-17, -2.600000000000000089, 0.6574999999999999734 ) ) ;
#138 = PRESENTATION_STYLE_ASSIGNMENT (( #35 ) ) ;
#139 = LINE ( 'NONE', #20, #212 ) ;
#140 = LENGTH_MEASURE_WITH_UNIT ( LENGTH_MEASURE( 0.02539999999999999897 ), #207 );
#141 = SURFACE_STYLE_FILL_AREA ( #156 ) ;
#142 = AXIS2_PLACEMENT_3D ( 'NONE', #223, #103, #14 ) ;
#143 = ORIENTED_EDGE ( 'NONE', *, *, #46, .T. ) ;
#144 = PLANE ( 'NONE',  #83 ) ;
#145 = ORIENTED_EDGE ( 'NONE', *, *, #40, .F. ) ;
#146 = CARTESIAN_POINT ( 'NONE',  ( 6.582476545417024321E-17, -2.600000000000000089, 0.5374999999999999778 ) ) ;
#147 = DIRECTION ( 'NONE',  ( 0.000000000000000000, -0.000000000000000000, 1.000000000000000000 ) ) ;
#148 =( NAMED_UNIT ( * ) PLANE_ANGLE_UNIT ( ) SI_UNIT ( $, .RADIAN. ) );
#149 = DIRECTION ( 'NONE',  ( 0.000000000000000000, 1.000000000000000000, 0.000000000000000000 ) ) ;
#150 = FILL_AREA_STYLE_COLOUR ( '', #98 ) ;
#151 = DIRECTION ( 'NONE',  ( 0.000000000000000000, 0.000000000000000000, 1.000000000000000000 ) ) ;
#152 = LINE ( 'NONE', #123, #190 ) ;
#153 = PRODUCT_CONTEXT ( 'NONE', #79, 'mechanical' ) ;
#154 = CIRCLE ( 'NONE', #59, 0.5374999999999999778 ) ;
#155 = COLOUR_RGB ( '',1.000000000000000000, 0.000000000000000000, 0.000000000000000000 ) ;
#156 = FILL_AREA_STYLE ('',( #193 ) ) ;
#157 = APPLICATION_PROTOCOL_DEFINITION ( 'draft international standard', 'automotive_design', 1998, #41 ) ;
#158 = ORIENTED_EDGE ( 'NONE', *, *, #215, .F. ) ;
#159 = FACE_BOUND ( 'NONE', #58, .T. ) ;
#160 = EDGE_CURVE ( 'NONE', #81, #9, #45, .T. ) ;
#161 = ORIENTED_EDGE ( 'NONE', *, *, #175, .T. ) ;
#162 = CIRCLE ( 'NONE', #196, 0.5374999999999999778 ) ;
#163 = AXIS2_PLACEMENT_3D ( 'NONE', #131, #111, #181 ) ;
#164 = DIRECTION ( 'NONE',  ( 0.000000000000000000, 0.000000000000000000, 1.000000000000000000 ) ) ;
#165 = DIRECTION ( 'NONE',  ( 0.000000000000000000, 1.000000000000000000, 0.000000000000000000 ) ) ;
#166 = EDGE_CURVE ( 'NONE', #9, #81, #154, .T. ) ;
#167 = FACE_OUTER_BOUND ( 'NONE', #39, .T. ) ;
#168 = CIRCLE ( 'NONE', #182, 0.6574999999999999734 ) ;
#169 = CYLINDRICAL_SURFACE ( 'NONE', #142, 0.6574999999999999734 ) ;
#170 = PRODUCT ( 'am-4553_Red Shipping Hub Sleeve', 'am-4553_Red Shipping Hub Sleeve', '', ( #153 ) ) ;
#171 = EDGE_CURVE ( 'NONE', #81, #112, #152, .T. ) ;
#172 = DIRECTION ( 'NONE',  ( 0.000000000000000000, 1.000000000000000000, 0.000000000000000000 ) ) ;
#173 = AXIS2_PLACEMENT_3D ( 'NONE', #96, #130, #116 ) ;
#174 =( CONVERSION_BASED_UNIT ( 'INCH', #140 ) LENGTH_UNIT ( ) NAMED_UNIT ( #62 ) );
#175 = EDGE_CURVE ( 'NONE', #23, #112, #75, .T. ) ;
#176 = APPLICATION_PROTOCOL_DEFINITION ( 'draft international standard', 'automotive_design', 1998, #79 ) ;
#177 = SHAPE_DEFINITION_REPRESENTATION ( #91, #100 ) ;
#178 =( NAMED_UNIT ( * ) PLANE_ANGLE_UNIT ( ) SI_UNIT ( $, .RADIAN. ) );
#179 = PRODUCT_DEFINITION ( 'UNKNOWN', '', #49, #63 ) ;
#180 = DIMENSIONAL_EXPONENTS ( 1.000000000000000000, 0.000000000000000000, 0.000000000000000000, 0.000000000000000000, 0.000000000000000000, 0.000000000000000000, 0.000000000000000000 ) ;
#181 = DIRECTION ( 'NONE',  ( 0.000000000000000000, 0.000000000000000000, -1.000000000000000000 ) ) ;
#182 = AXIS2_PLACEMENT_3D ( 'NONE', #192, #172, #134 ) ;
#183 = ORIENTED_EDGE ( 'NONE', *, *, #171, .F. ) ;
#184 = ORIENTED_EDGE ( 'NONE', *, *, #46, .F. ) ;
#185 = ORIENTED_EDGE ( 'NONE', *, *, #3, .F. ) ;
#186 = AXIS2_PLACEMENT_3D ( 'NONE', #76, #99, #164 ) ;
#187 = CARTESIAN_POINT ( 'NONE',  ( 8.052052704393848613E-17, 2.600000000000000089, 0.6574999999999999734 ) ) ;
#188 = DIRECTION ( 'NONE',  ( 0.000000000000000000, 1.000000000000000000, 0.000000000000000000 ) ) ;
#189 = DIRECTION ( 'NONE',  ( 0.000000000000000000, 0.000000000000000000, 1.000000000000000000 ) ) ;
#190 = VECTOR ( 'NONE', #90, 39.37007874015748143 ) ;
#191 = CYLINDRICAL_SURFACE ( 'NONE', #65, 0.5374999999999999778 ) ;
#192 = CARTESIAN_POINT ( 'NONE',  ( 0.000000000000000000, -2.600000000000000089, 0.000000000000000000 ) ) ;
#193 = FILL_AREA_STYLE_COLOUR ( '', #155 ) ;
#194 = PRODUCT_RELATED_PRODUCT_CATEGORY ( 'part', '', ( #170 ) ) ;
#195 = DIRECTION ( 'NONE',  ( 0.000000000000000000, 1.000000000000000000, 0.000000000000000000 ) ) ;
#196 = AXIS2_PLACEMENT_3D ( 'NONE', #86, #87, #151 ) ;
#197 = STYLED_ITEM ( 'NONE', ( #138 ), #100 ) ;
#198 = ORIENTED_EDGE ( 'NONE', *, *, #175, .F. ) ;
#199 = VERTEX_POINT ( 'NONE', #137 ) ;
#200 = VERTEX_POINT ( 'NONE', #93 ) ;
#201 =( NAMED_UNIT ( * ) SI_UNIT ( $, .STERADIAN. ) SOLID_ANGLE_UNIT ( ) );
#202 = CARTESIAN_POINT ( 'NONE',  ( 0.000000000000000000, 2.600000000000000089, 0.000000000000000000 ) ) ;
#203 = CYLINDRICAL_SURFACE ( 'NONE', #94, 0.6574999999999999734 ) ;
#204 = CLOSED_SHELL ( 'NONE', ( #37, #136, #31, #105, #57, #129 ) ) ;
#205 = DIRECTION ( 'NONE',  ( 0.000000000000000000, 1.000000000000000000, 0.000000000000000000 ) ) ;
#206 = PLANE ( 'NONE',  #208 ) ;
#207 =( LENGTH_UNIT ( ) NAMED_UNIT ( * ) SI_UNIT ( $, .METRE. ) );
#208 = AXIS2_PLACEMENT_3D ( 'NONE', #52, #188, #10 ) ;
#209 =( GEOMETRIC_REPRESENTATION_CONTEXT ( 3 ) GLOBAL_UNCERTAINTY_ASSIGNED_CONTEXT ( ( #43 ) ) GLOBAL_UNIT_ASSIGNED_CONTEXT ( ( #73, #53, #122 ) ) REPRESENTATION_CONTEXT ( 'NONE', 'WORKASPACE' ) );
#210 = ORIENTED_EDGE ( 'NONE', *, *, #3, .T. ) ;
#211 = CARTESIAN_POINT ( 'NONE',  ( 0.000000000000000000, 2.600000000000000089, 0.000000000000000000 ) ) ;
#212 = VECTOR ( 'NONE', #71, 39.37007874015748143 ) ;
#213 = EDGE_LOOP ( 'NONE', ( #114, #184 ) ) ;
#214 = ORIENTED_EDGE ( 'NONE', *, *, #15, .T. ) ;
#215 = EDGE_CURVE ( 'NONE', #200, #127, #139, .T. ) ;
#216 = FACE_OUTER_BOUND ( 'NONE', #97, .T. ) ;
#217 = VECTOR ( 'NONE', #89, 39.37007874015748143 ) ;
#218 = UNCERTAINTY_MEASURE_WITH_UNIT (LENGTH_MEASURE( 1.000000000000000082E-05 ), #174, 'distance_accuracy_value', 'NONE');
#219 = LENGTH_MEASURE_WITH_UNIT ( LENGTH_MEASURE( 0.02539999999999999897 ), #82 );
#220 = DIRECTION ( 'NONE',  ( 0.000000000000000000, 0.000000000000000000, 1.000000000000000000 ) ) ;
#221 = SURFACE_STYLE_FILL_AREA ( #119 ) ;
#222 = CARTESIAN_POINT ( 'NONE',  ( 6.582476545417024321E-17, 2.600000000000000089, 0.5374999999999999778 ) ) ;
#223 = CARTESIAN_POINT ( 'NONE',  ( 0.000000000000000000, 2.600000000000000089, 0.000000000000000000 ) ) ;
ENDSEC;
END-ISO-10303-21;
