ISO-10303-21;
HEADER;
FILE_DESCRIPTION (( 'STEP AP214' ),
    '1' );
FILE_NAME ('am-4557_Blue Carousel Outer Vertical Bearing Tube.STEP',
    '2021-04-28T13:47:25',
    ( '' ),
    ( '' ),
    'SwSTEP 2.0',
    'SolidWorks 2019',
    '' );
FILE_SCHEMA (( 'AUTOMOTIVE_DESIGN' ));
ENDSEC;

DATA;
#1 = CARTESIAN_POINT ( 'NONE',  ( -1.092739197465705287E-15, -0.6562500000000000000, 0.0000000000000000000 ) ) ;
#2 = DIRECTION ( 'NONE',  ( -0.9848077530122091305, 0.1736481776669241417, 0.0000000000000000000 ) ) ;
#3 = SURFACE_STYLE_USAGE ( .BOTH. , #56 ) ;
#4 =( BOUNDED_CURVE ( )  B_SPLINE_CURVE ( 3, ( #129, #52, #11, #70, #128, #93, #92 ),
 .UNSPECIFIED., .T., .T. ) 
 B_SPLINE_CURVE_WITH_KNOTS ( ( 4, 3, 4 ),
 ( 0.0000000000000000000, 3.141592653589793116, 6.283185307179586232 ),
 .UNSPECIFIED. ) 
 CURVE ( )  GEOMETRIC_REPRESENTATION_ITEM ( )  RATIONAL_B_SPLINE_CURVE ( ( 1.000000000000000000, 0.3333333333333333703, 0.3333333333333333703, 1.000000000000000000, 0.3333333333333333703, 0.3333333333333333703, 1.000000000000000000 ) ) 
 REPRESENTATION_ITEM ( '' )  );
#5 = DIRECTION ( 'NONE',  ( -1.000000000000000000, -0.0000000000000000000, -0.0000000000000000000 ) ) ;
#6 = FACE_OUTER_BOUND ( 'NONE', #68, .T. ) ;
#7 = ORIENTED_EDGE ( 'NONE', *, *, #127, .F. ) ;
#8 = COLOUR_RGB ( '',0.0000000000000000000, 0.0000000000000000000, 1.000000000000000000 ) ;
#9 = EDGE_LOOP ( 'NONE', ( #124 ) ) ;
#10 = MANIFOLD_SOLID_BREP ( 'Cut-Extrude1', #136 ) ;
#11 = CARTESIAN_POINT ( 'NONE',  ( 0.2109311506724903806, 0.5399999999999999245, -1.080000000000000293 ) ) ;
#12 =( GEOMETRIC_REPRESENTATION_CONTEXT ( 3 ) GLOBAL_UNCERTAINTY_ASSIGNED_CONTEXT ( ( #100 ) ) GLOBAL_UNIT_ASSIGNED_CONTEXT ( ( #16, #30, #45 ) ) REPRESENTATION_CONTEXT ( 'NONE', 'WORKASPACE' ) );
#13 = CARTESIAN_POINT ( 'NONE',  ( 0.2314291621798484910, 0.6562500000000000000, -8.036744619404507656E-17 ) ) ;
#14 = CARTESIAN_POINT ( 'NONE',  ( 11.52006884932750808, -0.5400000000000000355, 0.0000000000000000000 ) ) ;
#15 =( LENGTH_UNIT ( ) NAMED_UNIT ( * ) SI_UNIT ( $, .METRE. ) );
#16 =( CONVERSION_BASED_UNIT ( 'INCH', #66 ) LENGTH_UNIT ( ) NAMED_UNIT ( #49 ) );
#17 = CYLINDRICAL_SURFACE ( 'NONE', #63, 0.5400000000000000355 ) ;
#18 = EDGE_LOOP ( 'NONE', ( #103 ) ) ;
#19 =( BOUNDED_CURVE ( )  B_SPLINE_CURVE ( 3, ( #14, #71, #38, #153, #117, #97, #83 ),
 .UNSPECIFIED., .T., .T. ) 
 B_SPLINE_CURVE_WITH_KNOTS ( ( 4, 3, 4 ),
 ( 0.0000000000000000000, 3.141592653589793116, 6.283185307179586232 ),
 .UNSPECIFIED. ) 
 CURVE ( )  GEOMETRIC_REPRESENTATION_ITEM ( )  RATIONAL_B_SPLINE_CURVE ( ( 1.000000000000000000, 0.3333333333333333703, 0.3333333333333333703, 1.000000000000000000, 0.3333333333333333703, 0.3333333333333333703, 1.000000000000000000 ) ) 
 REPRESENTATION_ITEM ( '' )  );
#20 = ADVANCED_FACE ( 'NONE', ( #6, #112 ), #17, .F. ) ;
#21 = AXIS2_PLACEMENT_3D ( 'NONE', #80, #5, #57 ) ;
#22 = CARTESIAN_POINT ( 'NONE',  ( 11.73099999999999987, 0.6562500000000000000, 8.036744619404505191E-17 ) ) ;
#23 = PRODUCT_DEFINITION_CONTEXT ( 'detailed design', #140, 'design' ) ;
#24 = PRODUCT ( 'am-4557_Blue Carousel Outer Vertical Bearing Tube', 'am-4557_Blue Carousel Outer Vertical Bearing Tube', '', ( #98 ) ) ;
#25 =( NAMED_UNIT ( * ) PLANE_ANGLE_UNIT ( ) SI_UNIT ( $, .RADIAN. ) );
#26 = CARTESIAN_POINT ( 'NONE',  ( 0.2314291621798484910, 0.6562499999999998890, -1.312500000000000000 ) ) ;
#27 = DIRECTION ( 'NONE',  ( -0.1736481776669241417, -0.9848077530122091305, 0.0000000000000000000 ) ) ;
#28 = CARTESIAN_POINT ( 'NONE',  ( 11.49957083782014777, -0.6562500000000000000, 0.0000000000000000000 ) ) ;
#29 = PRESENTATION_LAYER_ASSIGNMENT (  '', '', ( #115 ) ) ;
#30 =( NAMED_UNIT ( * ) PLANE_ANGLE_UNIT ( ) SI_UNIT ( $, .RADIAN. ) );
#31 = ADVANCED_FACE ( 'NONE', ( #142, #143 ), #130, .F. ) ;
#32 = SURFACE_STYLE_FILL_AREA ( #77 ) ;
#33 = EDGE_LOOP ( 'NONE', ( #113 ) ) ;
#34 = PRODUCT_RELATED_PRODUCT_CATEGORY ( 'part', '', ( #24 ) ) ;
#35 = MECHANICAL_DESIGN_GEOMETRIC_PRESENTATION_REPRESENTATION (  '', ( #59 ), #12 ) ;
#36 =( BOUNDED_CURVE ( )  B_SPLINE_CURVE ( 3, ( #28, #135, #111, #22, #40, #154, #106 ),
 .UNSPECIFIED., .T., .T. ) 
 B_SPLINE_CURVE_WITH_KNOTS ( ( 4, 3, 4 ),
 ( 0.0000000000000000000, 3.141592653589793116, 6.283185307179586232 ),
 .UNSPECIFIED. ) 
 CURVE ( )  GEOMETRIC_REPRESENTATION_ITEM ( )  RATIONAL_B_SPLINE_CURVE ( ( 1.000000000000000000, 0.3333333333333333703, 0.3333333333333333703, 1.000000000000000000, 0.3333333333333333703, 0.3333333333333333703, 1.000000000000000000 ) ) 
 REPRESENTATION_ITEM ( '' )  );
#37 = PRODUCT_DEFINITION_FORMATION_WITH_SPECIFIED_SOURCE ( 'ANY', '', #24, .NOT_KNOWN. ) ;
#38 = CARTESIAN_POINT ( 'NONE',  ( 11.71050198849263957, 0.5399999999999999245, 1.080000000000000071 ) ) ;
#39 = CARTESIAN_POINT ( 'NONE',  ( 0.0000000000000000000, -0.6562500000000000000, -0.6562500000000000000 ) ) ;
#40 = CARTESIAN_POINT ( 'NONE',  ( 11.73099999999999987, 0.6562500000000001110, -1.312499999999999778 ) ) ;
#41 = DIRECTION ( 'NONE',  ( 1.000000000000000000, 0.0000000000000000000, 0.0000000000000000000 ) ) ;
#42 = CARTESIAN_POINT ( 'NONE',  ( 11.52006884932750808, -0.5400000000000000355, 0.0000000000000000000 ) ) ;
#43 = APPLICATION_CONTEXT ( 'automotive_design' ) ;
#44 = FILL_AREA_STYLE_COLOUR ( '', #50 ) ;
#45 =( NAMED_UNIT ( * ) SI_UNIT ( $, .STERADIAN. ) SOLID_ANGLE_UNIT ( ) );
#46 = PRESENTATION_STYLE_ASSIGNMENT (( #89 ) ) ;
#47 = ORIENTED_EDGE ( 'NONE', *, *, #48, .F. ) ;
#48 = EDGE_CURVE ( 'NONE', #108, #108, #36, .T. ) ;
#49 = DIMENSIONAL_EXPONENTS ( 1.000000000000000000, 0.0000000000000000000, 0.0000000000000000000, 0.0000000000000000000, 0.0000000000000000000, 0.0000000000000000000, 0.0000000000000000000 ) ;
#50 = COLOUR_RGB ( '',0.0000000000000000000, 0.0000000000000000000, 1.000000000000000000 ) ;
#51 = CARTESIAN_POINT ( 'NONE',  ( -1.092739197465705287E-15, -0.6562500000000000000, 0.0000000000000000000 ) ) ;
#52 = CARTESIAN_POINT ( 'NONE',  ( 0.02049801150735699670, -0.5400000000000000355, -1.080000000000000293 ) ) ;
#53 = APPLICATION_PROTOCOL_DEFINITION ( 'draft international standard', 'automotive_design', 1998, #140 ) ;
#54 = CARTESIAN_POINT ( 'NONE',  ( -1.092739197465705287E-15, -0.6562500000000000000, 1.312500000000000000 ) ) ;
#55 =( NAMED_UNIT ( * ) SI_UNIT ( $, .STERADIAN. ) SOLID_ANGLE_UNIT ( ) );
#56 = SURFACE_SIDE_STYLE ('',( #102 ) ) ;
#57 = DIRECTION ( 'NONE',  ( 0.0000000000000000000, 0.0000000000000000000, 1.000000000000000000 ) ) ;
#58 =( LENGTH_UNIT ( ) NAMED_UNIT ( * ) SI_UNIT ( $, .METRE. ) );
#59 = STYLED_ITEM ( 'NONE', ( #46 ), #10 ) ;
#60 = EDGE_LOOP ( 'NONE', ( #151 ) ) ;
#61 =( GEOMETRIC_REPRESENTATION_CONTEXT ( 3 ) GLOBAL_UNCERTAINTY_ASSIGNED_CONTEXT ( ( #81 ) ) GLOBAL_UNIT_ASSIGNED_CONTEXT ( ( #88, #101, #109 ) ) REPRESENTATION_CONTEXT ( 'NONE', 'WORKASPACE' ) );
#62 = DIRECTION ( 'NONE',  ( -1.000000000000000000, -0.0000000000000000000, -0.0000000000000000000 ) ) ;
#63 = AXIS2_PLACEMENT_3D ( 'NONE', #65, #62, #96 ) ;
#64 = CARTESIAN_POINT ( 'NONE',  ( 0.2314291621798485465, 0.6562500000000001110, 1.312500000000000000 ) ) ;
#65 = CARTESIAN_POINT ( 'NONE',  ( 11.73099999999999987, 0.0000000000000000000, 0.0000000000000000000 ) ) ;
#66 = LENGTH_MEASURE_WITH_UNIT ( LENGTH_MEASURE( 0.02539999999999999897 ), #58 );
#67 = ORIENTED_EDGE ( 'NONE', *, *, #95, .F. ) ;
#68 = EDGE_LOOP ( 'NONE', ( #67 ) ) ;
#69 =( GEOMETRIC_REPRESENTATION_CONTEXT ( 3 ) GLOBAL_UNCERTAINTY_ASSIGNED_CONTEXT ( ( #104 ) ) GLOBAL_UNIT_ASSIGNED_CONTEXT ( ( #148, #25, #55 ) ) REPRESENTATION_CONTEXT ( 'NONE', 'WORKASPACE' ) );
#70 = CARTESIAN_POINT ( 'NONE',  ( 0.2109311506724904084, 0.5400000000000000355, -6.613092715395708699E-17 ) ) ;
#71 = CARTESIAN_POINT ( 'NONE',  ( 11.52006884932750808, -0.5400000000000000355, 1.080000000000000071 ) ) ;
#72 = EDGE_CURVE ( 'NONE', #147, #147, #19, .T. ) ;
#73 = FACE_OUTER_BOUND ( 'NONE', #60, .T. ) ;
#74 = CARTESIAN_POINT ( 'NONE',  ( 11.73099999999999987, 0.6562500000000000000, -0.6562500000000000000 ) ) ;
#75 = CARTESIAN_POINT ( 'NONE',  ( 0.0000000000000000000, 0.0000000000000000000, 0.0000000000000000000 ) ) ;
#76 = CARTESIAN_POINT ( 'NONE',  ( -1.092739197465705287E-15, -0.6562500000000000000, 0.0000000000000000000 ) ) ;
#77 = FILL_AREA_STYLE ('',( #123 ) ) ;
#78 = EDGE_LOOP ( 'NONE', ( #47 ) ) ;
#79 = ADVANCED_BREP_SHAPE_REPRESENTATION ( 'am-4557_Blue Carousel Outer Vertical Bearing Tube', ( #10, #122 ), #69 ) ;
#80 = CARTESIAN_POINT ( 'NONE',  ( 11.73099999999999987, 0.0000000000000000000, 0.0000000000000000000 ) ) ;
#81 = UNCERTAINTY_MEASURE_WITH_UNIT (LENGTH_MEASURE( 1.000000000000000082E-05 ), #88, 'distance_accuracy_value', 'NONE');
#82 = FACE_BOUND ( 'NONE', #9, .T. ) ;
#83 = CARTESIAN_POINT ( 'NONE',  ( 11.52006884932750808, -0.5400000000000000355, 0.0000000000000000000 ) ) ;
#84 =( BOUNDED_CURVE ( )  B_SPLINE_CURVE ( 3, ( #51, #131, #26, #13, #64, #54, #1 ),
 .UNSPECIFIED., .T., .T. ) 
 B_SPLINE_CURVE_WITH_KNOTS ( ( 4, 3, 4 ),
 ( 0.0000000000000000000, 3.141592653589793116, 6.283185307179586232 ),
 .UNSPECIFIED. ) 
 CURVE ( )  GEOMETRIC_REPRESENTATION_ITEM ( )  RATIONAL_B_SPLINE_CURVE ( ( 1.000000000000000000, 0.3333333333333333703, 0.3333333333333333703, 1.000000000000000000, 0.3333333333333333703, 0.3333333333333333703, 1.000000000000000000 ) ) 
 REPRESENTATION_ITEM ( '' )  );
#85 = FACE_OUTER_BOUND ( 'NONE', #90, .T. ) ;
#86 = DIRECTION ( 'NONE',  ( 0.0000000000000000000, 0.0000000000000000000, 1.000000000000000000 ) ) ;
#87 = VERTEX_POINT ( 'NONE', #132 ) ;
#88 =( CONVERSION_BASED_UNIT ( 'INCH', #133 ) LENGTH_UNIT ( ) NAMED_UNIT ( #125 ) );
#89 = SURFACE_STYLE_USAGE ( .BOTH. , #137 ) ;
#90 = EDGE_LOOP ( 'NONE', ( #7 ) ) ;
#91 = PLANE ( 'NONE',  #126 ) ;
#92 = CARTESIAN_POINT ( 'NONE',  ( 0.02049801150735699670, -0.5400000000000000355, 0.0000000000000000000 ) ) ;
#93 = CARTESIAN_POINT ( 'NONE',  ( 0.02049801150735699670, -0.5400000000000000355, 1.080000000000000293 ) ) ;
#94 = MECHANICAL_DESIGN_GEOMETRIC_PRESENTATION_REPRESENTATION (  '', ( #115 ), #61 ) ;
#95 = EDGE_CURVE ( 'NONE', #87, #87, #4, .T. ) ;
#96 = DIRECTION ( 'NONE',  ( 0.0000000000000000000, 0.0000000000000000000, 1.000000000000000000 ) ) ;
#97 = CARTESIAN_POINT ( 'NONE',  ( 11.52006884932750808, -0.5400000000000000355, -1.080000000000000071 ) ) ;
#98 = PRODUCT_CONTEXT ( 'NONE', #43, 'mechanical' ) ;
#99 = CARTESIAN_POINT ( 'NONE',  ( 11.49957083782014777, -0.6562500000000000000, 0.0000000000000000000 ) ) ;
#100 = UNCERTAINTY_MEASURE_WITH_UNIT (LENGTH_MEASURE( 1.000000000000000082E-05 ), #16, 'distance_accuracy_value', 'NONE');
#101 =( NAMED_UNIT ( * ) PLANE_ANGLE_UNIT ( ) SI_UNIT ( $, .RADIAN. ) );
#102 = SURFACE_STYLE_FILL_AREA ( #149 ) ;
#103 = ORIENTED_EDGE ( 'NONE', *, *, #72, .F. ) ;
#104 = UNCERTAINTY_MEASURE_WITH_UNIT (LENGTH_MEASURE( 1.000000000000000082E-05 ), #148, 'distance_accuracy_value', 'NONE');
#105 = DIRECTION ( 'NONE',  ( 0.1736481776669225596, 0.9848077530122094636, 0.0000000000000000000 ) ) ;
#106 = CARTESIAN_POINT ( 'NONE',  ( 11.49957083782014777, -0.6562500000000000000, 0.0000000000000000000 ) ) ;
#107 = PRODUCT_DEFINITION_SHAPE ( 'NONE', 'NONE',  #139 ) ;
#108 = VERTEX_POINT ( 'NONE', #99 ) ;
#109 =( NAMED_UNIT ( * ) SI_UNIT ( $, .STERADIAN. ) SOLID_ANGLE_UNIT ( ) );
#110 = PRESENTATION_STYLE_ASSIGNMENT (( #3 ) ) ;
#111 = CARTESIAN_POINT ( 'NONE',  ( 11.73099999999999987, 0.6562499999999998890, 1.312499999999999778 ) ) ;
#112 = FACE_OUTER_BOUND ( 'NONE', #18, .T. ) ;
#113 = ORIENTED_EDGE ( 'NONE', *, *, #72, .T. ) ;
#114 = ORIENTED_EDGE ( 'NONE', *, *, #127, .T. ) ;
#115 = STYLED_ITEM ( 'NONE', ( #110 ), #79 ) ;
#116 = ADVANCED_FACE ( 'NONE', ( #82, #85 ), #91, .F. ) ;
#117 = CARTESIAN_POINT ( 'NONE',  ( 11.71050198849263957, 0.5400000000000002576, -1.080000000000000071 ) ) ;
#118 = ADVANCED_FACE ( 'NONE', ( #152, #73 ), #145, .T. ) ;
#119 = PRESENTATION_LAYER_ASSIGNMENT (  '', '', ( #59 ) ) ;
#120 = VERTEX_POINT ( 'NONE', #76 ) ;
#121 =( LENGTH_UNIT ( ) NAMED_UNIT ( * ) SI_UNIT ( $, .METRE. ) );
#122 = AXIS2_PLACEMENT_3D ( 'NONE', #75, #86, #41 ) ;
#123 = FILL_AREA_STYLE_COLOUR ( '', #8 ) ;
#124 = ORIENTED_EDGE ( 'NONE', *, *, #95, .T. ) ;
#125 = DIMENSIONAL_EXPONENTS ( 1.000000000000000000, 0.0000000000000000000, 0.0000000000000000000, 0.0000000000000000000, 0.0000000000000000000, 0.0000000000000000000, 0.0000000000000000000 ) ;
#126 = AXIS2_PLACEMENT_3D ( 'NONE', #39, #144, #105 ) ;
#127 = EDGE_CURVE ( 'NONE', #120, #120, #84, .T. ) ;
#128 = CARTESIAN_POINT ( 'NONE',  ( 0.2109311506724904361, 0.5400000000000002576, 1.080000000000000293 ) ) ;
#129 = CARTESIAN_POINT ( 'NONE',  ( 0.02049801150735699670, -0.5400000000000000355, 0.0000000000000000000 ) ) ;
#130 = PLANE ( 'NONE',  #150 ) ;
#131 = CARTESIAN_POINT ( 'NONE',  ( -1.092739197465705287E-15, -0.6562500000000000000, -1.312500000000000000 ) ) ;
#132 = CARTESIAN_POINT ( 'NONE',  ( 0.02049801150735699670, -0.5400000000000000355, 0.0000000000000000000 ) ) ;
#133 = LENGTH_MEASURE_WITH_UNIT ( LENGTH_MEASURE( 0.02539999999999999897 ), #121 );
#134 = LENGTH_MEASURE_WITH_UNIT ( LENGTH_MEASURE( 0.02539999999999999897 ), #15 );
#135 = CARTESIAN_POINT ( 'NONE',  ( 11.49957083782014600, -0.6562500000000000000, 1.312499999999999778 ) ) ;
#136 = CLOSED_SHELL ( 'NONE', ( #20, #31, #116, #118 ) ) ;
#137 = SURFACE_SIDE_STYLE ('',( #32 ) ) ;
#138 = EDGE_LOOP ( 'NONE', ( #114 ) ) ;
#139 = PRODUCT_DEFINITION ( 'UNKNOWN', '', #37, #23 ) ;
#140 = APPLICATION_CONTEXT ( 'automotive_design' ) ;
#141 = DIMENSIONAL_EXPONENTS ( 1.000000000000000000, 0.0000000000000000000, 0.0000000000000000000, 0.0000000000000000000, 0.0000000000000000000, 0.0000000000000000000, 0.0000000000000000000 ) ;
#142 = FACE_BOUND ( 'NONE', #33, .T. ) ;
#143 = FACE_OUTER_BOUND ( 'NONE', #78, .T. ) ;
#144 = DIRECTION ( 'NONE',  ( 0.9848077530122094636, -0.1736481776669225596, 0.0000000000000000000 ) ) ;
#145 = CYLINDRICAL_SURFACE ( 'NONE', #21, 0.6562500000000000000 ) ;
#146 = APPLICATION_PROTOCOL_DEFINITION ( 'draft international standard', 'automotive_design', 1998, #43 ) ;
#147 = VERTEX_POINT ( 'NONE', #42 ) ;
#148 =( CONVERSION_BASED_UNIT ( 'INCH', #134 ) LENGTH_UNIT ( ) NAMED_UNIT ( #141 ) );
#149 = FILL_AREA_STYLE ('',( #44 ) ) ;
#150 = AXIS2_PLACEMENT_3D ( 'NONE', #74, #2, #27 ) ;
#151 = ORIENTED_EDGE ( 'NONE', *, *, #48, .T. ) ;
#152 = FACE_OUTER_BOUND ( 'NONE', #138, .T. ) ;
#153 = CARTESIAN_POINT ( 'NONE',  ( 11.71050198849264135, 0.5400000000000000355, 6.613092715395707467E-17 ) ) ;
#154 = CARTESIAN_POINT ( 'NONE',  ( 11.49957083782014600, -0.6562500000000000000, -1.312499999999999778 ) ) ;
#155 = SHAPE_DEFINITION_REPRESENTATION ( #107, #79 ) ;
ENDSEC;
END-ISO-10303-21;
