ISO-10303-21;
HEADER;
FILE_DESCRIPTION (( 'STEP AP214' ),
    '1' );
FILE_NAME ('am-4557_Red Carousel Outer Vertical Bearing Tube.STEP',
    '2021-04-28T13:47:07',
    ( '' ),
    ( '' ),
    'SwSTEP 2.0',
    'SolidWorks 2019',
    '' );
FILE_SCHEMA (( 'AUTOMOTIVE_DESIGN' ));
ENDSEC;

DATA;
#1 = FACE_OUTER_BOUND ( 'NONE', #43, .T. ) ;
#2 = EDGE_CURVE ( 'NONE', #135, #135, #14, .T. ) ;
#3 = CARTESIAN_POINT ( 'NONE',  ( 11.52006884932750808, -0.5400000000000000355, -1.080000000000000071 ) ) ;
#4 = PRODUCT_CONTEXT ( 'NONE', #37, 'mechanical' ) ;
#5 = COLOUR_RGB ( '',1.000000000000000000, 0.0000000000000000000, 0.0000000000000000000 ) ;
#6 = CARTESIAN_POINT ( 'NONE',  ( 11.73099999999999987, 0.6562500000000000000, -0.6562500000000000000 ) ) ;
#7 = CARTESIAN_POINT ( 'NONE',  ( 11.71050198849263957, 0.5399999999999999245, 1.080000000000000071 ) ) ;
#8 = EDGE_CURVE ( 'NONE', #99, #99, #150, .T. ) ;
#9 = AXIS2_PLACEMENT_3D ( 'NONE', #69, #120, #47 ) ;
#10 = ORIENTED_EDGE ( 'NONE', *, *, #97, .F. ) ;
#11 = ORIENTED_EDGE ( 'NONE', *, *, #2, .T. ) ;
#12 =( GEOMETRIC_REPRESENTATION_CONTEXT ( 3 ) GLOBAL_UNCERTAINTY_ASSIGNED_CONTEXT ( ( #21 ) ) GLOBAL_UNIT_ASSIGNED_CONTEXT ( ( #17, #19, #146 ) ) REPRESENTATION_CONTEXT ( 'NONE', 'WORKASPACE' ) );
#13 = CARTESIAN_POINT ( 'NONE',  ( 2.202552444891812282E-15, -0.6562500000000000000, 1.312499999999999778 ) ) ;
#14 =( BOUNDED_CURVE ( )  B_SPLINE_CURVE ( 3, ( #125, #154, #111, #101, #151, #76, #126 ),
 .UNSPECIFIED., .T., .T. ) 
 B_SPLINE_CURVE_WITH_KNOTS ( ( 4, 3, 4 ),
 ( 0.0000000000000000000, 3.141592653589793116, 6.283185307179586232 ),
 .UNSPECIFIED. ) 
 CURVE ( )  GEOMETRIC_REPRESENTATION_ITEM ( )  RATIONAL_B_SPLINE_CURVE ( ( 1.000000000000000000, 0.3333333333333333703, 0.3333333333333333703, 1.000000000000000000, 0.3333333333333333703, 0.3333333333333333703, 1.000000000000000000 ) ) 
 REPRESENTATION_ITEM ( '' )  );
#15 = SURFACE_SIDE_STYLE ('',( #70 ) ) ;
#16 = DIRECTION ( 'NONE',  ( 0.0000000000000000000, 0.0000000000000000000, 1.000000000000000000 ) ) ;
#17 =( CONVERSION_BASED_UNIT ( 'INCH', #84 ) LENGTH_UNIT ( ) NAMED_UNIT ( #56 ) );
#18 =( LENGTH_UNIT ( ) NAMED_UNIT ( * ) SI_UNIT ( $, .METRE. ) );
#19 =( NAMED_UNIT ( * ) PLANE_ANGLE_UNIT ( ) SI_UNIT ( $, .RADIAN. ) );
#20 = PLANE ( 'NONE',  #92 ) ;
#21 = UNCERTAINTY_MEASURE_WITH_UNIT (LENGTH_MEASURE( 1.000000000000000082E-05 ), #17, 'distance_accuracy_value', 'NONE');
#22 = CARTESIAN_POINT ( 'NONE',  ( 11.49957083782014777, -0.6562500000000000000, 0.0000000000000000000 ) ) ;
#23 = CARTESIAN_POINT ( 'NONE',  ( 11.49957083782014600, -0.6562500000000000000, 1.312499999999999778 ) ) ;
#24 = CARTESIAN_POINT ( 'NONE',  ( 0.2314291621798539034, 0.6562499999999998890, -1.312499999999999778 ) ) ;
#25 =( GEOMETRIC_REPRESENTATION_CONTEXT ( 3 ) GLOBAL_UNCERTAINTY_ASSIGNED_CONTEXT ( ( #114 ) ) GLOBAL_UNIT_ASSIGNED_CONTEXT ( ( #128, #113, #110 ) ) REPRESENTATION_CONTEXT ( 'NONE', 'WORKASPACE' ) );
#26 = CYLINDRICAL_SURFACE ( 'NONE', #9, 0.6562500000000000000 ) ;
#27 =( NAMED_UNIT ( * ) SI_UNIT ( $, .STERADIAN. ) SOLID_ANGLE_UNIT ( ) );
#28 = CARTESIAN_POINT ( 'NONE',  ( 11.73099999999999987, 0.0000000000000000000, 0.0000000000000000000 ) ) ;
#29 = CARTESIAN_POINT ( 'NONE',  ( 0.0000000000000000000, 0.0000000000000000000, 0.0000000000000000000 ) ) ;
#30 = LENGTH_MEASURE_WITH_UNIT ( LENGTH_MEASURE( 0.02539999999999999897 ), #45 );
#31 = CARTESIAN_POINT ( 'NONE',  ( 11.71050198849263957, 0.5400000000000002576, -1.080000000000000071 ) ) ;
#32 = CARTESIAN_POINT ( 'NONE',  ( 11.73099999999999987, 0.6562500000000001110, -1.312499999999999778 ) ) ;
#33 = CARTESIAN_POINT ( 'NONE',  ( 11.49957083782014777, -0.6562500000000000000, 0.0000000000000000000 ) ) ;
#34 = CARTESIAN_POINT ( 'NONE',  ( 11.73099999999999987, 0.6562499999999998890, 1.312499999999999778 ) ) ;
#35 = DIRECTION ( 'NONE',  ( 0.1736481776669241417, 0.9848077530122091305, 0.0000000000000000000 ) ) ;
#36 =( CONVERSION_BASED_UNIT ( 'INCH', #136 ) LENGTH_UNIT ( ) NAMED_UNIT ( #105 ) );
#37 = APPLICATION_CONTEXT ( 'automotive_design' ) ;
#38 = DIRECTION ( 'NONE',  ( -0.1736481776669241417, -0.9848077530122091305, 0.0000000000000000000 ) ) ;
#39 = CARTESIAN_POINT ( 'NONE',  ( 11.49957083782014777, -0.6562500000000000000, 0.0000000000000000000 ) ) ;
#40 = FILL_AREA_STYLE ('',( #75 ) ) ;
#41 = EDGE_CURVE ( 'NONE', #63, #63, #137, .T. ) ;
#42 = ORIENTED_EDGE ( 'NONE', *, *, #8, .T. ) ;
#43 = EDGE_LOOP ( 'NONE', ( #89 ) ) ;
#44 = PLANE ( 'NONE',  #116 ) ;
#45 =( LENGTH_UNIT ( ) NAMED_UNIT ( * ) SI_UNIT ( $, .METRE. ) );
#46 = APPLICATION_PROTOCOL_DEFINITION ( 'draft international standard', 'automotive_design', 1998, #104 ) ;
#47 = DIRECTION ( 'NONE',  ( 0.0000000000000000000, 0.0000000000000000000, 1.000000000000000000 ) ) ;
#48 = MECHANICAL_DESIGN_GEOMETRIC_PRESENTATION_REPRESENTATION (  '', ( #67 ), #12 ) ;
#49 = CYLINDRICAL_SURFACE ( 'NONE', #131, 0.5400000000000000355 ) ;
#50 = SURFACE_SIDE_STYLE ('',( #138 ) ) ;
#51 = FACE_BOUND ( 'NONE', #65, .T. ) ;
#52 = PRESENTATION_LAYER_ASSIGNMENT (  '', '', ( #144 ) ) ;
#53 = ORIENTED_EDGE ( 'NONE', *, *, #97, .T. ) ;
#54 = ADVANCED_FACE ( 'NONE', ( #102, #1 ), #44, .F. ) ;
#55 = ORIENTED_EDGE ( 'NONE', *, *, #2, .F. ) ;
#56 = DIMENSIONAL_EXPONENTS ( 1.000000000000000000, 0.0000000000000000000, 0.0000000000000000000, 0.0000000000000000000, 0.0000000000000000000, 0.0000000000000000000, 0.0000000000000000000 ) ;
#57 = PRODUCT_DEFINITION ( 'UNKNOWN', '', #147, #90 ) ;
#58 = CARTESIAN_POINT ( 'NONE',  ( 2.202552444891812282E-15, -0.6562500000000000000, 0.0000000000000000000 ) ) ;
#59 = DIRECTION ( 'NONE',  ( 1.000000000000000000, 0.0000000000000000000, 0.0000000000000000000 ) ) ;
#60 =( BOUNDED_CURVE ( )  B_SPLINE_CURVE ( 3, ( #122, #62, #7, #134, #31, #3, #107 ),
 .UNSPECIFIED., .T., .T. ) 
 B_SPLINE_CURVE_WITH_KNOTS ( ( 4, 3, 4 ),
 ( 0.0000000000000000000, 3.141592653589793116, 6.283185307179586232 ),
 .UNSPECIFIED. ) 
 CURVE ( )  GEOMETRIC_REPRESENTATION_ITEM ( )  RATIONAL_B_SPLINE_CURVE ( ( 1.000000000000000000, 0.3333333333333333703, 0.3333333333333333703, 1.000000000000000000, 0.3333333333333333703, 0.3333333333333333703, 1.000000000000000000 ) ) 
 REPRESENTATION_ITEM ( '' )  );
#61 = CARTESIAN_POINT ( 'NONE',  ( 0.02049801150736048003, -0.5400000000000000355, 0.0000000000000000000 ) ) ;
#62 = CARTESIAN_POINT ( 'NONE',  ( 11.52006884932750808, -0.5400000000000000355, 1.080000000000000071 ) ) ;
#63 = VERTEX_POINT ( 'NONE', #81 ) ;
#64 = PRODUCT_RELATED_PRODUCT_CATEGORY ( 'part', '', ( #100 ) ) ;
#65 = EDGE_LOOP ( 'NONE', ( #53 ) ) ;
#66 = EDGE_LOOP ( 'NONE', ( #87 ) ) ;
#67 = STYLED_ITEM ( 'NONE', ( #121 ), #83 ) ;
#68 = CARTESIAN_POINT ( 'NONE',  ( 0.2314291621798539589, 0.6562500000000000000, -8.036744619404505191E-17 ) ) ;
#69 = CARTESIAN_POINT ( 'NONE',  ( 11.73099999999999987, 0.0000000000000000000, 0.0000000000000000000 ) ) ;
#70 = SURFACE_STYLE_FILL_AREA ( #133 ) ;
#71 =( LENGTH_UNIT ( ) NAMED_UNIT ( * ) SI_UNIT ( $, .METRE. ) );
#72 = FACE_OUTER_BOUND ( 'NONE', #142, .T. ) ;
#73 = COLOUR_RGB ( '',1.000000000000000000, 0.0000000000000000000, 0.0000000000000000000 ) ;
#74 = AXIS2_PLACEMENT_3D ( 'NONE', #29, #16, #59 ) ;
#75 = FILL_AREA_STYLE_COLOUR ( '', #5 ) ;
#76 = CARTESIAN_POINT ( 'NONE',  ( 0.02049801150736048003, -0.5400000000000000355, 1.080000000000000071 ) ) ;
#77 = PRESENTATION_STYLE_ASSIGNMENT (( #94 ) ) ;
#78 = CARTESIAN_POINT ( 'NONE',  ( 2.202552444891812282E-15, -0.6562500000000000000, 0.0000000000000000000 ) ) ;
#79 =( GEOMETRIC_REPRESENTATION_CONTEXT ( 3 ) GLOBAL_UNCERTAINTY_ASSIGNED_CONTEXT ( ( #153 ) ) GLOBAL_UNIT_ASSIGNED_CONTEXT ( ( #36, #98, #27 ) ) REPRESENTATION_CONTEXT ( 'NONE', 'WORKASPACE' ) );
#80 = FACE_OUTER_BOUND ( 'NONE', #66, .T. ) ;
#81 = CARTESIAN_POINT ( 'NONE',  ( 2.202552444891812282E-15, -0.6562500000000000000, 0.0000000000000000000 ) ) ;
#82 = DIRECTION ( 'NONE',  ( 0.0000000000000000000, 0.0000000000000000000, 1.000000000000000000 ) ) ;
#83 = ADVANCED_BREP_SHAPE_REPRESENTATION ( 'am-4557_Red Carousel Outer Vertical Bearing Tube', ( #127, #74 ), #25 ) ;
#84 = LENGTH_MEASURE_WITH_UNIT ( LENGTH_MEASURE( 0.02539999999999999897 ), #71 );
#85 = ADVANCED_FACE ( 'NONE', ( #80, #132 ), #26, .T. ) ;
#86 = FACE_OUTER_BOUND ( 'NONE', #140, .T. ) ;
#87 = ORIENTED_EDGE ( 'NONE', *, *, #41, .T. ) ;
#88 = EDGE_LOOP ( 'NONE', ( #11 ) ) ;
#89 = ORIENTED_EDGE ( 'NONE', *, *, #41, .F. ) ;
#90 = PRODUCT_DEFINITION_CONTEXT ( 'detailed design', #104, 'design' ) ;
#91 = CARTESIAN_POINT ( 'NONE',  ( 0.0000000000000000000, -0.6562500000000000000, -0.6562500000000000000 ) ) ;
#92 = AXIS2_PLACEMENT_3D ( 'NONE', #6, #148, #38 ) ;
#93 = CARTESIAN_POINT ( 'NONE',  ( 11.52006884932750808, -0.5400000000000000355, 0.0000000000000000000 ) ) ;
#94 = SURFACE_STYLE_USAGE ( .BOTH. , #15 ) ;
#95 = SHAPE_DEFINITION_REPRESENTATION ( #152, #83 ) ;
#96 = FILL_AREA_STYLE_COLOUR ( '', #73 ) ;
#97 = EDGE_CURVE ( 'NONE', #103, #103, #60, .T. ) ;
#98 =( NAMED_UNIT ( * ) PLANE_ANGLE_UNIT ( ) SI_UNIT ( $, .RADIAN. ) );
#99 = VERTEX_POINT ( 'NONE', #39 ) ;
#100 = PRODUCT ( 'am-4557_Red Carousel Outer Vertical Bearing Tube', 'am-4557_Red Carousel Outer Vertical Bearing Tube', '', ( #4 ) ) ;
#101 = CARTESIAN_POINT ( 'NONE',  ( 0.2109311506724956820, 0.5400000000000000355, -6.613092715395707467E-17 ) ) ;
#102 = FACE_BOUND ( 'NONE', #88, .T. ) ;
#103 = VERTEX_POINT ( 'NONE', #93 ) ;
#104 = APPLICATION_CONTEXT ( 'automotive_design' ) ;
#105 = DIMENSIONAL_EXPONENTS ( 1.000000000000000000, 0.0000000000000000000, 0.0000000000000000000, 0.0000000000000000000, 0.0000000000000000000, 0.0000000000000000000, 0.0000000000000000000 ) ;
#106 = APPLICATION_PROTOCOL_DEFINITION ( 'draft international standard', 'automotive_design', 1998, #37 ) ;
#107 = CARTESIAN_POINT ( 'NONE',  ( 11.52006884932750808, -0.5400000000000000355, 0.0000000000000000000 ) ) ;
#108 = DIMENSIONAL_EXPONENTS ( 1.000000000000000000, 0.0000000000000000000, 0.0000000000000000000, 0.0000000000000000000, 0.0000000000000000000, 0.0000000000000000000, 0.0000000000000000000 ) ;
#109 = ADVANCED_FACE ( 'NONE', ( #51, #123 ), #20, .F. ) ;
#110 =( NAMED_UNIT ( * ) SI_UNIT ( $, .STERADIAN. ) SOLID_ANGLE_UNIT ( ) );
#111 = CARTESIAN_POINT ( 'NONE',  ( 0.2109311506724956264, 0.5399999999999999245, -1.080000000000000071 ) ) ;
#112 = CLOSED_SHELL ( 'NONE', ( #155, #109, #54, #85 ) ) ;
#113 =( NAMED_UNIT ( * ) PLANE_ANGLE_UNIT ( ) SI_UNIT ( $, .RADIAN. ) );
#114 = UNCERTAINTY_MEASURE_WITH_UNIT (LENGTH_MEASURE( 1.000000000000000082E-05 ), #128, 'distance_accuracy_value', 'NONE');
#115 = CARTESIAN_POINT ( 'NONE',  ( 11.49957083782014600, -0.6562500000000000000, -1.312499999999999778 ) ) ;
#116 = AXIS2_PLACEMENT_3D ( 'NONE', #91, #143, #35 ) ;
#117 = EDGE_LOOP ( 'NONE', ( #42 ) ) ;
#118 = ORIENTED_EDGE ( 'NONE', *, *, #8, .F. ) ;
#119 = CARTESIAN_POINT ( 'NONE',  ( 0.2314291621798540421, 0.6562500000000001110, 1.312499999999999778 ) ) ;
#120 = DIRECTION ( 'NONE',  ( -1.000000000000000000, -0.0000000000000000000, -0.0000000000000000000 ) ) ;
#121 = PRESENTATION_STYLE_ASSIGNMENT (( #149 ) ) ;
#122 = CARTESIAN_POINT ( 'NONE',  ( 11.52006884932750808, -0.5400000000000000355, 0.0000000000000000000 ) ) ;
#123 = FACE_OUTER_BOUND ( 'NONE', #141, .T. ) ;
#124 = MECHANICAL_DESIGN_GEOMETRIC_PRESENTATION_REPRESENTATION (  '', ( #144 ), #79 ) ;
#125 = CARTESIAN_POINT ( 'NONE',  ( 0.02049801150736048003, -0.5400000000000000355, 0.0000000000000000000 ) ) ;
#126 = CARTESIAN_POINT ( 'NONE',  ( 0.02049801150736048003, -0.5400000000000000355, 0.0000000000000000000 ) ) ;
#127 = MANIFOLD_SOLID_BREP ( 'Cut-Extrude1', #112 ) ;
#128 =( CONVERSION_BASED_UNIT ( 'INCH', #30 ) LENGTH_UNIT ( ) NAMED_UNIT ( #108 ) );
#129 = CARTESIAN_POINT ( 'NONE',  ( 11.73099999999999987, 0.6562500000000000000, 8.036744619404505191E-17 ) ) ;
#130 = CARTESIAN_POINT ( 'NONE',  ( 2.202552444891812282E-15, -0.6562500000000000000, -1.312499999999999778 ) ) ;
#131 = AXIS2_PLACEMENT_3D ( 'NONE', #28, #145, #82 ) ;
#132 = FACE_OUTER_BOUND ( 'NONE', #117, .T. ) ;
#133 = FILL_AREA_STYLE ('',( #96 ) ) ;
#134 = CARTESIAN_POINT ( 'NONE',  ( 11.71050198849264135, 0.5400000000000000355, 6.613092715395707467E-17 ) ) ;
#135 = VERTEX_POINT ( 'NONE', #61 ) ;
#136 = LENGTH_MEASURE_WITH_UNIT ( LENGTH_MEASURE( 0.02539999999999999897 ), #18 );
#137 =( BOUNDED_CURVE ( )  B_SPLINE_CURVE ( 3, ( #78, #130, #24, #68, #119, #13, #58 ),
 .UNSPECIFIED., .T., .T. ) 
 B_SPLINE_CURVE_WITH_KNOTS ( ( 4, 3, 4 ),
 ( 0.0000000000000000000, 3.141592653589793116, 6.283185307179586232 ),
 .UNSPECIFIED. ) 
 CURVE ( )  GEOMETRIC_REPRESENTATION_ITEM ( )  RATIONAL_B_SPLINE_CURVE ( ( 1.000000000000000000, 0.3333333333333333703, 0.3333333333333333703, 1.000000000000000000, 0.3333333333333333703, 0.3333333333333333703, 1.000000000000000000 ) ) 
 REPRESENTATION_ITEM ( '' )  );
#138 = SURFACE_STYLE_FILL_AREA ( #40 ) ;
#139 = PRESENTATION_LAYER_ASSIGNMENT (  '', '', ( #67 ) ) ;
#140 = EDGE_LOOP ( 'NONE', ( #55 ) ) ;
#141 = EDGE_LOOP ( 'NONE', ( #118 ) ) ;
#142 = EDGE_LOOP ( 'NONE', ( #10 ) ) ;
#143 = DIRECTION ( 'NONE',  ( 0.9848077530122091305, -0.1736481776669241417, 0.0000000000000000000 ) ) ;
#144 = STYLED_ITEM ( 'NONE', ( #77 ), #127 ) ;
#145 = DIRECTION ( 'NONE',  ( -1.000000000000000000, -0.0000000000000000000, -0.0000000000000000000 ) ) ;
#146 =( NAMED_UNIT ( * ) SI_UNIT ( $, .STERADIAN. ) SOLID_ANGLE_UNIT ( ) );
#147 = PRODUCT_DEFINITION_FORMATION_WITH_SPECIFIED_SOURCE ( 'ANY', '', #100, .NOT_KNOWN. ) ;
#148 = DIRECTION ( 'NONE',  ( -0.9848077530122091305, 0.1736481776669241417, 0.0000000000000000000 ) ) ;
#149 = SURFACE_STYLE_USAGE ( .BOTH. , #50 ) ;
#150 =( BOUNDED_CURVE ( )  B_SPLINE_CURVE ( 3, ( #33, #23, #34, #129, #32, #115, #22 ),
 .UNSPECIFIED., .T., .T. ) 
 B_SPLINE_CURVE_WITH_KNOTS ( ( 4, 3, 4 ),
 ( 0.0000000000000000000, 3.141592653589793116, 6.283185307179586232 ),
 .UNSPECIFIED. ) 
 CURVE ( )  GEOMETRIC_REPRESENTATION_ITEM ( )  RATIONAL_B_SPLINE_CURVE ( ( 1.000000000000000000, 0.3333333333333333703, 0.3333333333333333703, 1.000000000000000000, 0.3333333333333333703, 0.3333333333333333703, 1.000000000000000000 ) ) 
 REPRESENTATION_ITEM ( '' )  );
#151 = CARTESIAN_POINT ( 'NONE',  ( 0.2109311506724957097, 0.5400000000000002576, 1.080000000000000071 ) ) ;
#152 = PRODUCT_DEFINITION_SHAPE ( 'NONE', 'NONE',  #57 ) ;
#153 = UNCERTAINTY_MEASURE_WITH_UNIT (LENGTH_MEASURE( 1.000000000000000082E-05 ), #36, 'distance_accuracy_value', 'NONE');
#154 = CARTESIAN_POINT ( 'NONE',  ( 0.02049801150736048003, -0.5400000000000000355, -1.080000000000000071 ) ) ;
#155 = ADVANCED_FACE ( 'NONE', ( #86, #72 ), #49, .F. ) ;
ENDSEC;
END-ISO-10303-21;
