ISO-10303-21;
HEADER;
FILE_DESCRIPTION (( 'STEP AP214' ),
    '1' );
FILE_NAME ('am-4549 Vertical Long Barrier Pipe.STEP',
    '2021-08-23T19:39:45',
    ( '' ),
    ( '' ),
    'SwSTEP 2.0',
    'SolidWorks 2021',
    '' );
FILE_SCHEMA (( 'AUTOMOTIVE_DESIGN' ));
ENDSEC;

DATA;
#1 = EDGE_CURVE ( 'NONE', #89, #185, #85, .T. ) ;
#2 = CARTESIAN_POINT ( 'NONE',  ( 6.429395695523603660E-17, 14.75000000000000000, 0.5250000000000000222 ) ) ;
#3 = ORIENTED_EDGE ( 'NONE', *, *, #178, .T. ) ;
#4 = EDGE_CURVE ( 'NONE', #8, #37, #121, .T. ) ;
#5 = PRODUCT ( 'am-4549 Vertical Long Barrier Pipe', 'am-4549 Vertical Long Barrier Pipe', '', ( #141 ) ) ;
#6 = VERTEX_POINT ( 'NONE', #152 ) ;
#7 = AXIS2_PLACEMENT_3D ( 'NONE', #156, #22, #137 ) ;
#8 = VERTEX_POINT ( 'NONE', #2 ) ;
#9 = CARTESIAN_POINT ( 'NONE',  ( 0.000000000000000000, -14.75000000000000000, 0.000000000000000000 ) ) ;
#10 =( GEOMETRIC_REPRESENTATION_CONTEXT ( 3 ) GLOBAL_UNCERTAINTY_ASSIGNED_CONTEXT ( ( #190 ) ) GLOBAL_UNIT_ASSIGNED_CONTEXT ( ( #132, #164, #220 ) ) REPRESENTATION_CONTEXT ( 'NONE', 'WORKASPACE' ) );
#11 = DIRECTION ( 'NONE',  ( 0.000000000000000000, 1.000000000000000000, 0.000000000000000000 ) ) ;
#12 = DIRECTION ( 'NONE',  ( 0.000000000000000000, 1.000000000000000000, 0.000000000000000000 ) ) ;
#13 = PLANE ( 'NONE',  #48 ) ;
#14 = CARTESIAN_POINT ( 'NONE',  ( 0.000000000000000000, 14.75000000000000000, -0.5250000000000000222 ) ) ;
#15 = SURFACE_STYLE_USAGE ( .BOTH. , #17 ) ;
#16 = AXIS2_PLACEMENT_3D ( 'NONE', #179, #12, #44 ) ;
#17 = SURFACE_SIDE_STYLE ('',( #148 ) ) ;
#18 = ORIENTED_EDGE ( 'NONE', *, *, #63, .F. ) ;
#19 = EDGE_LOOP ( 'NONE', ( #189, #20, #54, #192 ) ) ;
#20 = ORIENTED_EDGE ( 'NONE', *, *, #63, .T. ) ;
#21 = ADVANCED_FACE ( 'NONE', ( #66 ), #51, .T. ) ;
#22 = DIRECTION ( 'NONE',  ( 0.000000000000000000, 1.000000000000000000, 0.000000000000000000 ) ) ;
#23 = CARTESIAN_POINT ( 'NONE',  ( 0.000000000000000000, -14.75000000000000000, 0.000000000000000000 ) ) ;
#24 = EDGE_CURVE ( 'NONE', #37, #125, #108, .T. ) ;
#25 = CARTESIAN_POINT ( 'NONE',  ( 5.204748896376249466E-17, 14.75000000000000000, 0.4249999999999999889 ) ) ;
#26 = MECHANICAL_DESIGN_GEOMETRIC_PRESENTATION_REPRESENTATION (  '', ( #102 ), #197 ) ;
#27 = CYLINDRICAL_SURFACE ( 'NONE', #136, 0.4249999999999999889 ) ;
#28 = CIRCLE ( 'NONE', #74, 0.5250000000000000222 ) ;
#29 = CYLINDRICAL_SURFACE ( 'NONE', #65, 0.5250000000000000222 ) ;
#30 = EDGE_CURVE ( 'NONE', #37, #8, #203, .T. ) ;
#31 = DIRECTION ( 'NONE',  ( 0.000000000000000000, 1.000000000000000000, 0.000000000000000000 ) ) ;
#32 =( LENGTH_UNIT ( ) NAMED_UNIT ( * ) SI_UNIT ( $, .METRE. ) );
#33 = ADVANCED_FACE ( 'NONE', ( #61 ), #29, .T. ) ;
#34 = VERTEX_POINT ( 'NONE', #177 ) ;
#35 = DIRECTION ( 'NONE',  ( 0.000000000000000000, 0.000000000000000000, -1.000000000000000000 ) ) ;
#36 = CIRCLE ( 'NONE', #91, 0.4249999999999999889 ) ;
#37 = VERTEX_POINT ( 'NONE', #14 ) ;
#38 = ORIENTED_EDGE ( 'NONE', *, *, #88, .F. ) ;
#39 = CARTESIAN_POINT ( 'NONE',  ( 0.000000000000000000, 14.75000000000000000, 0.000000000000000000 ) ) ;
#40 = CARTESIAN_POINT ( 'NONE',  ( 5.204748896376249466E-17, -14.75000000000000000, 0.4249999999999999889 ) ) ;
#41 = DIMENSIONAL_EXPONENTS ( 1.000000000000000000, 0.000000000000000000, 0.000000000000000000, 0.000000000000000000, 0.000000000000000000, 0.000000000000000000, 0.000000000000000000 ) ;
#42 = CARTESIAN_POINT ( 'NONE',  ( 0.000000000000000000, 14.75000000000000000, -0.5250000000000000222 ) ) ;
#43 = EDGE_CURVE ( 'NONE', #34, #87, #161, .T. ) ;
#44 = DIRECTION ( 'NONE',  ( 0.000000000000000000, -0.000000000000000000, 1.000000000000000000 ) ) ;
#45 = DIRECTION ( 'NONE',  ( 0.000000000000000000, 1.000000000000000000, 0.000000000000000000 ) ) ;
#46 =( CONVERSION_BASED_UNIT ( 'INCH', #223 ) LENGTH_UNIT ( ) NAMED_UNIT ( #175 ) );
#47 = ADVANCED_FACE ( 'NONE', ( #58 ), #27, .F. ) ;
#48 = AXIS2_PLACEMENT_3D ( 'NONE', #39, #218, #98 ) ;
#49 =( NAMED_UNIT ( * ) PLANE_ANGLE_UNIT ( ) SI_UNIT ( $, .RADIAN. ) );
#50 = EDGE_LOOP ( 'NONE', ( #3, #140 ) ) ;
#51 = CYLINDRICAL_SURFACE ( 'NONE', #75, 0.5250000000000000222 ) ;
#52 = SHAPE_DEFINITION_REPRESENTATION ( #59, #134 ) ;
#53 = EDGE_LOOP ( 'NONE', ( #55, #68 ) ) ;
#54 = ORIENTED_EDGE ( 'NONE', *, *, #178, .F. ) ;
#55 = ORIENTED_EDGE ( 'NONE', *, *, #30, .T. ) ;
#56 = CYLINDRICAL_SURFACE ( 'NONE', #180, 0.4249999999999999889 ) ;
#57 = CARTESIAN_POINT ( 'NONE',  ( 0.000000000000000000, 14.75000000000000000, 0.000000000000000000 ) ) ;
#58 = FACE_OUTER_BOUND ( 'NONE', #19, .T. ) ;
#59 = PRODUCT_DEFINITION_SHAPE ( 'NONE', 'NONE',  #204 ) ;
#60 = DIRECTION ( 'NONE',  ( 0.000000000000000000, 0.000000000000000000, 1.000000000000000000 ) ) ;
#61 = FACE_OUTER_BOUND ( 'NONE', #70, .T. ) ;
#62 = UNCERTAINTY_MEASURE_WITH_UNIT (LENGTH_MEASURE( 1.000000000000000082E-05 ), #46, 'distance_accuracy_value', 'NONE');
#63 = EDGE_CURVE ( 'NONE', #87, #89, #217, .T. ) ;
#64 = FILL_AREA_STYLE_COLOUR ( '', #72 ) ;
#65 = AXIS2_PLACEMENT_3D ( 'NONE', #71, #131, #96 ) ;
#66 = FACE_OUTER_BOUND ( 'NONE', #155, .T. ) ;
#67 = CARTESIAN_POINT ( 'NONE',  ( 0.000000000000000000, 14.75000000000000000, 0.000000000000000000 ) ) ;
#68 = ORIENTED_EDGE ( 'NONE', *, *, #4, .T. ) ;
#69 = ORIENTED_EDGE ( 'NONE', *, *, #43, .F. ) ;
#70 = EDGE_LOOP ( 'NONE', ( #169, #112, #90, #170 ) ) ;
#71 = CARTESIAN_POINT ( 'NONE',  ( 0.000000000000000000, 14.75000000000000000, 0.000000000000000000 ) ) ;
#72 = COLOUR_RGB ( '',0.2509803921568627416, 0.2509803921568627416, 0.2509803921568627416 ) ;
#73 = FACE_OUTER_BOUND ( 'NONE', #209, .T. ) ;
#74 = AXIS2_PLACEMENT_3D ( 'NONE', #213, #143, #196 ) ;
#75 = AXIS2_PLACEMENT_3D ( 'NONE', #186, #124, #35 ) ;
#76 = DIRECTION ( 'NONE',  ( 0.000000000000000000, 0.000000000000000000, -1.000000000000000000 ) ) ;
#77 = CARTESIAN_POINT ( 'NONE',  ( 5.204748896376249466E-17, 14.75000000000000000, 0.4249999999999999889 ) ) ;
#78 = DIRECTION ( 'NONE',  ( -0.000000000000000000, -1.000000000000000000, -0.000000000000000000 ) ) ;
#79 = AXIS2_PLACEMENT_3D ( 'NONE', #99, #45, #60 ) ;
#80 = VECTOR ( 'NONE', #126, 39.37007874015748143 ) ;
#81 = FILL_AREA_STYLE ('',( #64 ) ) ;
#82 =( LENGTH_UNIT ( ) NAMED_UNIT ( * ) SI_UNIT ( $, .METRE. ) );
#83 = PRODUCT_DEFINITION_CONTEXT ( 'detailed design', #111, 'design' ) ;
#84 = AXIS2_PLACEMENT_3D ( 'NONE', #145, #31, #130 ) ;
#85 = CIRCLE ( 'NONE', #7, 0.4249999999999999889 ) ;
#86 = PRESENTATION_LAYER_ASSIGNMENT (  '', '', ( #199 ) ) ;
#87 = VERTEX_POINT ( 'NONE', #77 ) ;
#88 = EDGE_CURVE ( 'NONE', #125, #6, #28, .T. ) ;
#89 = VERTEX_POINT ( 'NONE', #40 ) ;
#90 = ORIENTED_EDGE ( 'NONE', *, *, #165, .T. ) ;
#91 = AXIS2_PLACEMENT_3D ( 'NONE', #9, #11, #194 ) ;
#92 = DIRECTION ( 'NONE',  ( 0.000000000000000000, 0.000000000000000000, 1.000000000000000000 ) ) ;
#93 = VECTOR ( 'NONE', #147, 39.37007874015748143 ) ;
#94 = DIRECTION ( 'NONE',  ( 0.000000000000000000, 1.000000000000000000, 0.000000000000000000 ) ) ;
#95 = ADVANCED_FACE ( 'NONE', ( #159, #127 ), #13, .T. ) ;
#96 = DIRECTION ( 'NONE',  ( 0.000000000000000000, 0.000000000000000000, -1.000000000000000000 ) ) ;
#97 = DIRECTION ( 'NONE',  ( 0.000000000000000000, 1.000000000000000000, 0.000000000000000000 ) ) ;
#98 = DIRECTION ( 'NONE',  ( 0.000000000000000000, -0.000000000000000000, 1.000000000000000000 ) ) ;
#99 = CARTESIAN_POINT ( 'NONE',  ( 0.000000000000000000, 14.75000000000000000, 0.000000000000000000 ) ) ;
#100 = PRESENTATION_STYLE_ASSIGNMENT (( #149 ) ) ;
#101 = EDGE_CURVE ( 'NONE', #8, #6, #198, .T. ) ;
#102 = STYLED_ITEM ( 'NONE', ( #205 ), #187 ) ;
#103 =( LENGTH_UNIT ( ) NAMED_UNIT ( * ) SI_UNIT ( $, .METRE. ) );
#104 = CLOSED_SHELL ( 'NONE', ( #47, #33, #95, #182, #21, #107 ) ) ;
#105 = ORIENTED_EDGE ( 'NONE', *, *, #146, .T. ) ;
#106 = AXIS2_PLACEMENT_3D ( 'NONE', #168, #207, #191 ) ;
#107 = ADVANCED_FACE ( 'NONE', ( #119 ), #56, .F. ) ;
#108 = LINE ( 'NONE', #42, #93 ) ;
#109 = CIRCLE ( 'NONE', #133, 0.5250000000000000222 ) ;
#110 = EDGE_LOOP ( 'NONE', ( #69, #157 ) ) ;
#111 = APPLICATION_CONTEXT ( 'automotive_design' ) ;
#112 = ORIENTED_EDGE ( 'NONE', *, *, #101, .T. ) ;
#113 = CARTESIAN_POINT ( 'NONE',  ( 0.000000000000000000, -14.75000000000000000, -0.5250000000000000222 ) ) ;
#114 = PRODUCT_DEFINITION_FORMATION_WITH_SPECIFIED_SOURCE ( 'ANY', '', #5, .NOT_KNOWN. ) ;
#115 = CARTESIAN_POINT ( 'NONE',  ( 0.000000000000000000, 14.75000000000000000, 0.000000000000000000 ) ) ;
#116 = LINE ( 'NONE', #163, #118 ) ;
#117 = CARTESIAN_POINT ( 'NONE',  ( 0.000000000000000000, -14.75000000000000000, -0.4249999999999999889 ) ) ;
#118 = VECTOR ( 'NONE', #176, 39.37007874015748143 ) ;
#119 = FACE_OUTER_BOUND ( 'NONE', #211, .T. ) ;
#120 =( GEOMETRIC_REPRESENTATION_CONTEXT ( 3 ) GLOBAL_UNCERTAINTY_ASSIGNED_CONTEXT ( ( #212 ) ) GLOBAL_UNIT_ASSIGNED_CONTEXT ( ( #183, #49, #184 ) ) REPRESENTATION_CONTEXT ( 'NONE', 'WORKASPACE' ) );
#121 = CIRCLE ( 'NONE', #210, 0.5250000000000000222 ) ;
#122 = SURFACE_STYLE_FILL_AREA ( #81 ) ;
#123 = ORIENTED_EDGE ( 'NONE', *, *, #1, .F. ) ;
#124 = DIRECTION ( 'NONE',  ( -0.000000000000000000, -1.000000000000000000, -0.000000000000000000 ) ) ;
#125 = VERTEX_POINT ( 'NONE', #113 ) ;
#126 = DIRECTION ( 'NONE',  ( -0.000000000000000000, -1.000000000000000000, -0.000000000000000000 ) ) ;
#127 = FACE_BOUND ( 'NONE', #110, .T. ) ;
#128 = DIMENSIONAL_EXPONENTS ( 1.000000000000000000, 0.000000000000000000, 0.000000000000000000, 0.000000000000000000, 0.000000000000000000, 0.000000000000000000, 0.000000000000000000 ) ;
#129 = DIRECTION ( 'NONE',  ( 0.000000000000000000, 0.000000000000000000, -1.000000000000000000 ) ) ;
#130 = DIRECTION ( 'NONE',  ( 0.000000000000000000, 0.000000000000000000, 1.000000000000000000 ) ) ;
#131 = DIRECTION ( 'NONE',  ( -0.000000000000000000, -1.000000000000000000, -0.000000000000000000 ) ) ;
#132 =( CONVERSION_BASED_UNIT ( 'INCH', #167 ) LENGTH_UNIT ( ) NAMED_UNIT ( #41 ) );
#133 = AXIS2_PLACEMENT_3D ( 'NONE', #23, #94, #158 ) ;
#134 = ADVANCED_BREP_SHAPE_REPRESENTATION ( 'am-4549 Vertical Long Barrier Pipe', ( #187, #106 ), #120 ) ;
#135 = FILL_AREA_STYLE ('',( #162 ) ) ;
#136 = AXIS2_PLACEMENT_3D ( 'NONE', #57, #78, #129 ) ;
#137 = DIRECTION ( 'NONE',  ( 0.000000000000000000, 0.000000000000000000, 1.000000000000000000 ) ) ;
#138 = DIRECTION ( 'NONE',  ( 0.000000000000000000, 1.000000000000000000, 0.000000000000000000 ) ) ;
#139 = EDGE_CURVE ( 'NONE', #87, #34, #202, .T. ) ;
#140 = ORIENTED_EDGE ( 'NONE', *, *, #1, .T. ) ;
#141 = PRODUCT_CONTEXT ( 'NONE', #171, 'mechanical' ) ;
#142 = ORIENTED_EDGE ( 'NONE', *, *, #88, .T. ) ;
#143 = DIRECTION ( 'NONE',  ( 0.000000000000000000, 1.000000000000000000, 0.000000000000000000 ) ) ;
#144 = CARTESIAN_POINT ( 'NONE',  ( 6.429395695523603660E-17, 14.75000000000000000, 0.5250000000000000222 ) ) ;
#145 = CARTESIAN_POINT ( 'NONE',  ( 0.000000000000000000, 14.75000000000000000, 0.000000000000000000 ) ) ;
#146 = EDGE_CURVE ( 'NONE', #34, #185, #116, .T. ) ;
#147 = DIRECTION ( 'NONE',  ( -0.000000000000000000, -1.000000000000000000, -0.000000000000000000 ) ) ;
#148 = SURFACE_STYLE_FILL_AREA ( #135 ) ;
#149 = SURFACE_STYLE_USAGE ( .BOTH. , #166 ) ;
#150 =( NAMED_UNIT ( * ) SI_UNIT ( $, .STERADIAN. ) SOLID_ANGLE_UNIT ( ) );
#151 = VECTOR ( 'NONE', #215, 39.37007874015748143 ) ;
#152 = CARTESIAN_POINT ( 'NONE',  ( 6.429395695523603660E-17, -14.75000000000000000, 0.5250000000000000222 ) ) ;
#153 = ORIENTED_EDGE ( 'NONE', *, *, #139, .T. ) ;
#154 = PRODUCT_RELATED_PRODUCT_CATEGORY ( 'part', '', ( #5 ) ) ;
#155 = EDGE_LOOP ( 'NONE', ( #174, #208, #172, #142 ) ) ;
#156 = CARTESIAN_POINT ( 'NONE',  ( 0.000000000000000000, -14.75000000000000000, 0.000000000000000000 ) ) ;
#157 = ORIENTED_EDGE ( 'NONE', *, *, #139, .F. ) ;
#158 = DIRECTION ( 'NONE',  ( 0.000000000000000000, 0.000000000000000000, 1.000000000000000000 ) ) ;
#159 = FACE_OUTER_BOUND ( 'NONE', #53, .T. ) ;
#160 = DIRECTION ( 'NONE',  ( 0.000000000000000000, 0.000000000000000000, 1.000000000000000000 ) ) ;
#161 = CIRCLE ( 'NONE', #222, 0.4249999999999999889 ) ;
#162 = FILL_AREA_STYLE_COLOUR ( '', #219 ) ;
#163 = CARTESIAN_POINT ( 'NONE',  ( 0.000000000000000000, 14.75000000000000000, -0.4249999999999999889 ) ) ;
#164 =( NAMED_UNIT ( * ) PLANE_ANGLE_UNIT ( ) SI_UNIT ( $, .RADIAN. ) );
#165 = EDGE_CURVE ( 'NONE', #6, #125, #109, .T. ) ;
#166 = SURFACE_SIDE_STYLE ('',( #122 ) ) ;
#167 = LENGTH_MEASURE_WITH_UNIT ( LENGTH_MEASURE( 0.02539999999999999897 ), #103 );
#168 = CARTESIAN_POINT ( 'NONE',  ( 0.000000000000000000, 0.000000000000000000, 0.000000000000000000 ) ) ;
#169 = ORIENTED_EDGE ( 'NONE', *, *, #4, .F. ) ;
#170 = ORIENTED_EDGE ( 'NONE', *, *, #24, .F. ) ;
#171 = APPLICATION_CONTEXT ( 'automotive_design' ) ;
#172 = ORIENTED_EDGE ( 'NONE', *, *, #24, .T. ) ;
#173 = APPLICATION_PROTOCOL_DEFINITION ( 'draft international standard', 'automotive_design', 1998, #111 ) ;
#174 = ORIENTED_EDGE ( 'NONE', *, *, #101, .F. ) ;
#175 = DIMENSIONAL_EXPONENTS ( 1.000000000000000000, 0.000000000000000000, 0.000000000000000000, 0.000000000000000000, 0.000000000000000000, 0.000000000000000000, 0.000000000000000000 ) ;
#176 = DIRECTION ( 'NONE',  ( -0.000000000000000000, -1.000000000000000000, -0.000000000000000000 ) ) ;
#177 = CARTESIAN_POINT ( 'NONE',  ( 0.000000000000000000, 14.75000000000000000, -0.4249999999999999889 ) ) ;
#178 = EDGE_CURVE ( 'NONE', #185, #89, #36, .T. ) ;
#179 = CARTESIAN_POINT ( 'NONE',  ( 0.000000000000000000, -14.75000000000000000, 0.000000000000000000 ) ) ;
#180 = AXIS2_PLACEMENT_3D ( 'NONE', #181, #193, #76 ) ;
#181 = CARTESIAN_POINT ( 'NONE',  ( 0.000000000000000000, 14.75000000000000000, 0.000000000000000000 ) ) ;
#182 = ADVANCED_FACE ( 'NONE', ( #73, #216 ), #195, .F. ) ;
#183 =( CONVERSION_BASED_UNIT ( 'INCH', #201 ) LENGTH_UNIT ( ) NAMED_UNIT ( #128 ) );
#184 =( NAMED_UNIT ( * ) SI_UNIT ( $, .STERADIAN. ) SOLID_ANGLE_UNIT ( ) );
#185 = VERTEX_POINT ( 'NONE', #117 ) ;
#186 = CARTESIAN_POINT ( 'NONE',  ( 0.000000000000000000, 14.75000000000000000, 0.000000000000000000 ) ) ;
#187 = MANIFOLD_SOLID_BREP ( 'Boss-Extrude1', #104 ) ;
#188 = ORIENTED_EDGE ( 'NONE', *, *, #165, .F. ) ;
#189 = ORIENTED_EDGE ( 'NONE', *, *, #43, .T. ) ;
#190 = UNCERTAINTY_MEASURE_WITH_UNIT (LENGTH_MEASURE( 1.000000000000000082E-05 ), #132, 'distance_accuracy_value', 'NONE');
#191 = DIRECTION ( 'NONE',  ( 1.000000000000000000, 0.000000000000000000, 0.000000000000000000 ) ) ;
#192 = ORIENTED_EDGE ( 'NONE', *, *, #146, .F. ) ;
#193 = DIRECTION ( 'NONE',  ( -0.000000000000000000, -1.000000000000000000, -0.000000000000000000 ) ) ;
#194 = DIRECTION ( 'NONE',  ( 0.000000000000000000, 0.000000000000000000, 1.000000000000000000 ) ) ;
#195 = PLANE ( 'NONE',  #16 ) ;
#196 = DIRECTION ( 'NONE',  ( 0.000000000000000000, 0.000000000000000000, 1.000000000000000000 ) ) ;
#197 =( GEOMETRIC_REPRESENTATION_CONTEXT ( 3 ) GLOBAL_UNCERTAINTY_ASSIGNED_CONTEXT ( ( #62 ) ) GLOBAL_UNIT_ASSIGNED_CONTEXT ( ( #46, #206, #150 ) ) REPRESENTATION_CONTEXT ( 'NONE', 'WORKASPACE' ) );
#198 = LINE ( 'NONE', #144, #151 ) ;
#199 = STYLED_ITEM ( 'NONE', ( #100 ), #134 ) ;
#200 = APPLICATION_PROTOCOL_DEFINITION ( 'draft international standard', 'automotive_design', 1998, #171 ) ;
#201 = LENGTH_MEASURE_WITH_UNIT ( LENGTH_MEASURE( 0.02539999999999999897 ), #82 );
#202 = CIRCLE ( 'NONE', #84, 0.4249999999999999889 ) ;
#203 = CIRCLE ( 'NONE', #79, 0.5250000000000000222 ) ;
#204 = PRODUCT_DEFINITION ( 'UNKNOWN', '', #114, #83 ) ;
#205 = PRESENTATION_STYLE_ASSIGNMENT (( #15 ) ) ;
#206 =( NAMED_UNIT ( * ) PLANE_ANGLE_UNIT ( ) SI_UNIT ( $, .RADIAN. ) );
#207 = DIRECTION ( 'NONE',  ( 0.000000000000000000, 0.000000000000000000, 1.000000000000000000 ) ) ;
#208 = ORIENTED_EDGE ( 'NONE', *, *, #30, .F. ) ;
#209 = EDGE_LOOP ( 'NONE', ( #38, #188 ) ) ;
#210 = AXIS2_PLACEMENT_3D ( 'NONE', #67, #138, #92 ) ;
#211 = EDGE_LOOP ( 'NONE', ( #18, #153, #105, #123 ) ) ;
#212 = UNCERTAINTY_MEASURE_WITH_UNIT (LENGTH_MEASURE( 1.000000000000000082E-05 ), #183, 'distance_accuracy_value', 'NONE');
#213 = CARTESIAN_POINT ( 'NONE',  ( 0.000000000000000000, -14.75000000000000000, 0.000000000000000000 ) ) ;
#214 = MECHANICAL_DESIGN_GEOMETRIC_PRESENTATION_REPRESENTATION (  '', ( #199 ), #10 ) ;
#215 = DIRECTION ( 'NONE',  ( -0.000000000000000000, -1.000000000000000000, -0.000000000000000000 ) ) ;
#216 = FACE_BOUND ( 'NONE', #50, .T. ) ;
#217 = LINE ( 'NONE', #25, #80 ) ;
#218 = DIRECTION ( 'NONE',  ( 0.000000000000000000, 1.000000000000000000, 0.000000000000000000 ) ) ;
#219 = COLOUR_RGB ( '',0.2509803921568627416, 0.2509803921568627416, 0.2509803921568627416 ) ;
#220 =( NAMED_UNIT ( * ) SI_UNIT ( $, .STERADIAN. ) SOLID_ANGLE_UNIT ( ) );
#221 = PRESENTATION_LAYER_ASSIGNMENT (  '', '', ( #102 ) ) ;
#222 = AXIS2_PLACEMENT_3D ( 'NONE', #115, #97, #160 ) ;
#223 = LENGTH_MEASURE_WITH_UNIT ( LENGTH_MEASURE( 0.02539999999999999897 ), #32 );
ENDSEC;
END-ISO-10303-21;
