ISO-10303-21;
HEADER;
FILE_DESCRIPTION (( 'STEP AP214' ),
    '1' );
FILE_NAME ('am-4548 Horizontal Short Barrier Pipe.STEP',
    '2021-08-23T16:11:54',
    ( '' ),
    ( '' ),
    'SwSTEP 2.0',
    'SolidWorks 2021',
    '' );
FILE_SCHEMA (( 'AUTOMOTIVE_DESIGN' ));
ENDSEC;

DATA;
#1 = PRODUCT_DEFINITION_FORMATION_WITH_SPECIFIED_SOURCE ( 'ANY', '', #200, .NOT_KNOWN. ) ;
#2 = CIRCLE ( 'NONE', #80, 0.4249999999999999889 ) ;
#3 = CARTESIAN_POINT ( 'NONE',  ( 0.000000000000000000, 14.00000000000000000, 0.000000000000000000 ) ) ;
#4 = FILL_AREA_STYLE ('',( #213 ) ) ;
#5 = DIRECTION ( 'NONE',  ( 0.000000000000000000, 0.000000000000000000, 1.000000000000000000 ) ) ;
#6 = VECTOR ( 'NONE', #190, 39.37007874015748143 ) ;
#7 = CYLINDRICAL_SURFACE ( 'NONE', #25, 0.4249999999999999889 ) ;
#8 = DIRECTION ( 'NONE',  ( 0.000000000000000000, 1.000000000000000000, 0.000000000000000000 ) ) ;
#9 = FACE_OUTER_BOUND ( 'NONE', #178, .T. ) ;
#10 = DIRECTION ( 'NONE',  ( 0.000000000000000000, 0.000000000000000000, 1.000000000000000000 ) ) ;
#11 = PRESENTATION_LAYER_ASSIGNMENT (  '', '', ( #62 ) ) ;
#12 = AXIS2_PLACEMENT_3D ( 'NONE', #214, #72, #20 ) ;
#13 = APPLICATION_CONTEXT ( 'automotive_design' ) ;
#14 = EDGE_CURVE ( 'NONE', #27, #219, #212, .T. ) ;
#15 = DIRECTION ( 'NONE',  ( 0.000000000000000000, 1.000000000000000000, 0.000000000000000000 ) ) ;
#16 = AXIS2_PLACEMENT_3D ( 'NONE', #127, #30, #109 ) ;
#17 = PLANE ( 'NONE',  #160 ) ;
#18 = DIRECTION ( 'NONE',  ( -0.000000000000000000, -1.000000000000000000, -0.000000000000000000 ) ) ;
#19 = CARTESIAN_POINT ( 'NONE',  ( 0.000000000000000000, -14.00000000000000000, -0.5250000000000000222 ) ) ;
#20 = DIRECTION ( 'NONE',  ( 0.000000000000000000, 0.000000000000000000, 1.000000000000000000 ) ) ;
#21 = ORIENTED_EDGE ( 'NONE', *, *, #88, .T. ) ;
#22 = APPLICATION_CONTEXT ( 'automotive_design' ) ;
#23 =( NAMED_UNIT ( * ) PLANE_ANGLE_UNIT ( ) SI_UNIT ( $, .RADIAN. ) );
#24 = LINE ( 'NONE', #96, #147 ) ;
#25 = AXIS2_PLACEMENT_3D ( 'NONE', #136, #170, #36 ) ;
#26 = CYLINDRICAL_SURFACE ( 'NONE', #191, 0.5250000000000000222 ) ;
#27 = VERTEX_POINT ( 'NONE', #56 ) ;
#28 = CARTESIAN_POINT ( 'NONE',  ( 0.000000000000000000, -14.00000000000000000, 0.000000000000000000 ) ) ;
#29 = EDGE_CURVE ( 'NONE', #219, #27, #53, .T. ) ;
#30 = DIRECTION ( 'NONE',  ( 0.000000000000000000, 0.000000000000000000, 1.000000000000000000 ) ) ;
#31 = FACE_OUTER_BOUND ( 'NONE', #162, .T. ) ;
#32 = AXIS2_PLACEMENT_3D ( 'NONE', #121, #8, #186 ) ;
#33 = SURFACE_STYLE_FILL_AREA ( #207 ) ;
#34 = SURFACE_STYLE_FILL_AREA ( #4 ) ;
#35 = PRESENTATION_LAYER_ASSIGNMENT (  '', '', ( #102 ) ) ;
#36 = DIRECTION ( 'NONE',  ( 0.000000000000000000, 0.000000000000000000, -1.000000000000000000 ) ) ;
#37 = EDGE_CURVE ( 'NONE', #180, #223, #97, .T. ) ;
#38 = CARTESIAN_POINT ( 'NONE',  ( 0.000000000000000000, 14.00000000000000000, 0.000000000000000000 ) ) ;
#39 = EDGE_LOOP ( 'NONE', ( #132, #175 ) ) ;
#40 =( CONVERSION_BASED_UNIT ( 'INCH', #74 ) LENGTH_UNIT ( ) NAMED_UNIT ( #113 ) );
#41 = ORIENTED_EDGE ( 'NONE', *, *, #157, .T. ) ;
#42 = ORIENTED_EDGE ( 'NONE', *, *, #14, .T. ) ;
#43 = FACE_BOUND ( 'NONE', #87, .T. ) ;
#44 = PRODUCT_DEFINITION_CONTEXT ( 'detailed design', #22, 'design' ) ;
#45 = ORIENTED_EDGE ( 'NONE', *, *, #92, .T. ) ;
#46 = ORIENTED_EDGE ( 'NONE', *, *, #29, .T. ) ;
#47 = AXIS2_PLACEMENT_3D ( 'NONE', #70, #66, #90 ) ;
#48 = ADVANCED_FACE ( 'NONE', ( #93 ), #7, .F. ) ;
#49 = CARTESIAN_POINT ( 'NONE',  ( 0.000000000000000000, -14.00000000000000000, 0.000000000000000000 ) ) ;
#50 = FACE_OUTER_BOUND ( 'NONE', #116, .T. ) ;
#51 = ORIENTED_EDGE ( 'NONE', *, *, #37, .T. ) ;
#52 = FACE_BOUND ( 'NONE', #161, .T. ) ;
#53 = CIRCLE ( 'NONE', #171, 0.4249999999999999889 ) ;
#54 = EDGE_CURVE ( 'NONE', #82, #134, #122, .T. ) ;
#55 = LINE ( 'NONE', #196, #6 ) ;
#56 = CARTESIAN_POINT ( 'NONE',  ( 0.000000000000000000, 14.00000000000000000, -0.4249999999999999889 ) ) ;
#57 = ADVANCED_FACE ( 'NONE', ( #154, #43 ), #199, .T. ) ;
#58 = ORIENTED_EDGE ( 'NONE', *, *, #73, .T. ) ;
#59 = PRODUCT_CONTEXT ( 'NONE', #13, 'mechanical' ) ;
#60 = ORIENTED_EDGE ( 'NONE', *, *, #163, .T. ) ;
#61 = ORIENTED_EDGE ( 'NONE', *, *, #54, .T. ) ;
#62 = STYLED_ITEM ( 'NONE', ( #83 ), #215 ) ;
#63 = PRODUCT_DEFINITION ( 'UNKNOWN', '', #1, #44 ) ;
#64 = SURFACE_SIDE_STYLE ('',( #34 ) ) ;
#65 =( NAMED_UNIT ( * ) SI_UNIT ( $, .STERADIAN. ) SOLID_ANGLE_UNIT ( ) );
#66 = DIRECTION ( 'NONE',  ( 0.000000000000000000, 1.000000000000000000, 0.000000000000000000 ) ) ;
#67 =( NAMED_UNIT ( * ) SI_UNIT ( $, .STERADIAN. ) SOLID_ANGLE_UNIT ( ) );
#68 = CARTESIAN_POINT ( 'NONE',  ( 5.204748896376250699E-17, -14.00000000000000000, 0.4249999999999999889 ) ) ;
#69 = AXIS2_PLACEMENT_3D ( 'NONE', #38, #172, #10 ) ;
#70 = CARTESIAN_POINT ( 'NONE',  ( 0.000000000000000000, -14.00000000000000000, 0.000000000000000000 ) ) ;
#71 = CARTESIAN_POINT ( 'NONE',  ( 0.000000000000000000, 14.00000000000000000, 0.000000000000000000 ) ) ;
#72 = DIRECTION ( 'NONE',  ( 0.000000000000000000, 1.000000000000000000, 0.000000000000000000 ) ) ;
#73 = EDGE_CURVE ( 'NONE', #223, #104, #24, .T. ) ;
#74 = LENGTH_MEASURE_WITH_UNIT ( LENGTH_MEASURE( 0.02539999999999999897 ), #84 );
#75 = DIRECTION ( 'NONE',  ( 0.000000000000000000, 0.000000000000000000, -1.000000000000000000 ) ) ;
#76 = DIRECTION ( 'NONE',  ( 0.000000000000000000, 1.000000000000000000, 0.000000000000000000 ) ) ;
#77 = ADVANCED_FACE ( 'NONE', ( #9 ), #26, .T. ) ;
#78 = EDGE_LOOP ( 'NONE', ( #42, #41, #126, #203 ) ) ;
#79 = EDGE_LOOP ( 'NONE', ( #51, #21 ) ) ;
#80 = AXIS2_PLACEMENT_3D ( 'NONE', #49, #124, #189 ) ;
#81 = DIRECTION ( 'NONE',  ( 0.000000000000000000, 0.000000000000000000, -1.000000000000000000 ) ) ;
#82 = VERTEX_POINT ( 'NONE', #99 ) ;
#83 = PRESENTATION_STYLE_ASSIGNMENT (( #183 ) ) ;
#84 =( LENGTH_UNIT ( ) NAMED_UNIT ( * ) SI_UNIT ( $, .METRE. ) );
#85 =( NAMED_UNIT ( * ) PLANE_ANGLE_UNIT ( ) SI_UNIT ( $, .RADIAN. ) );
#86 = CARTESIAN_POINT ( 'NONE',  ( 6.429395695523606125E-17, -14.00000000000000000, 0.5250000000000000222 ) ) ;
#87 = EDGE_LOOP ( 'NONE', ( #103, #202 ) ) ;
#88 = EDGE_CURVE ( 'NONE', #223, #180, #174, .T. ) ;
#89 = DIMENSIONAL_EXPONENTS ( 1.000000000000000000, 0.000000000000000000, 0.000000000000000000, 0.000000000000000000, 0.000000000000000000, 0.000000000000000000, 0.000000000000000000 ) ;
#90 = DIRECTION ( 'NONE',  ( 0.000000000000000000, 0.000000000000000000, 1.000000000000000000 ) ) ;
#91 = DIRECTION ( 'NONE',  ( 0.000000000000000000, 1.000000000000000000, 0.000000000000000000 ) ) ;
#92 = EDGE_CURVE ( 'NONE', #27, #82, #55, .T. ) ;
#93 = FACE_OUTER_BOUND ( 'NONE', #78, .T. ) ;
#94 = AXIS2_PLACEMENT_3D ( 'NONE', #3, #18, #81 ) ;
#95 =( LENGTH_UNIT ( ) NAMED_UNIT ( * ) SI_UNIT ( $, .METRE. ) );
#96 = CARTESIAN_POINT ( 'NONE',  ( 6.429395695523606125E-17, 14.00000000000000000, 0.5250000000000000222 ) ) ;
#97 = CIRCLE ( 'NONE', #32, 0.5250000000000000222 ) ;
#98 = VECTOR ( 'NONE', #167, 39.37007874015748143 ) ;
#99 = CARTESIAN_POINT ( 'NONE',  ( 0.000000000000000000, -14.00000000000000000, -0.4249999999999999889 ) ) ;
#100 = UNCERTAINTY_MEASURE_WITH_UNIT (LENGTH_MEASURE( 1.000000000000000082E-05 ), #40, 'distance_accuracy_value', 'NONE');
#101 = ORIENTED_EDGE ( 'NONE', *, *, #112, .T. ) ;
#102 = STYLED_ITEM ( 'NONE', ( #194 ), #176 ) ;
#103 = ORIENTED_EDGE ( 'NONE', *, *, #14, .F. ) ;
#104 = VERTEX_POINT ( 'NONE', #86 ) ;
#105 = AXIS2_PLACEMENT_3D ( 'NONE', #125, #128, #5 ) ;
#106 = CLOSED_SHELL ( 'NONE', ( #48, #77, #57, #133, #137, #118 ) ) ;
#107 = CARTESIAN_POINT ( 'NONE',  ( 0.000000000000000000, 14.00000000000000000, -0.5250000000000000222 ) ) ;
#108 = CARTESIAN_POINT ( 'NONE',  ( 6.429395695523606125E-17, 14.00000000000000000, 0.5250000000000000222 ) ) ;
#109 = DIRECTION ( 'NONE',  ( 1.000000000000000000, 0.000000000000000000, 0.000000000000000000 ) ) ;
#110 = CARTESIAN_POINT ( 'NONE',  ( 0.000000000000000000, 14.00000000000000000, 0.000000000000000000 ) ) ;
#111 = SURFACE_STYLE_USAGE ( .BOTH. , #64 ) ;
#112 = EDGE_CURVE ( 'NONE', #104, #204, #149, .T. ) ;
#113 = DIMENSIONAL_EXPONENTS ( 1.000000000000000000, 0.000000000000000000, 0.000000000000000000, 0.000000000000000000, 0.000000000000000000, 0.000000000000000000, 0.000000000000000000 ) ;
#114 = DIRECTION ( 'NONE',  ( -0.000000000000000000, -1.000000000000000000, -0.000000000000000000 ) ) ;
#115 = ORIENTED_EDGE ( 'NONE', *, *, #157, .F. ) ;
#116 = EDGE_LOOP ( 'NONE', ( #211, #139, #159, #60 ) ) ;
#117 = FILL_AREA_STYLE_COLOUR ( '', #120 ) ;
#118 = ADVANCED_FACE ( 'NONE', ( #31 ), #208, .F. ) ;
#119 = ORIENTED_EDGE ( 'NONE', *, *, #188, .F. ) ;
#120 = COLOUR_RGB ( '',0.2509803921568627416, 0.2509803921568627416, 0.2509803921568627416 ) ;
#121 = CARTESIAN_POINT ( 'NONE',  ( 0.000000000000000000, 14.00000000000000000, 0.000000000000000000 ) ) ;
#122 = CIRCLE ( 'NONE', #12, 0.4249999999999999889 ) ;
#123 = ORIENTED_EDGE ( 'NONE', *, *, #88, .F. ) ;
#124 = DIRECTION ( 'NONE',  ( 0.000000000000000000, 1.000000000000000000, 0.000000000000000000 ) ) ;
#125 = CARTESIAN_POINT ( 'NONE',  ( 0.000000000000000000, -14.00000000000000000, 0.000000000000000000 ) ) ;
#126 = ORIENTED_EDGE ( 'NONE', *, *, #54, .F. ) ;
#127 = CARTESIAN_POINT ( 'NONE',  ( 0.000000000000000000, 0.000000000000000000, 0.000000000000000000 ) ) ;
#128 = DIRECTION ( 'NONE',  ( 0.000000000000000000, 1.000000000000000000, 0.000000000000000000 ) ) ;
#129 = DIMENSIONAL_EXPONENTS ( 1.000000000000000000, 0.000000000000000000, 0.000000000000000000, 0.000000000000000000, 0.000000000000000000, 0.000000000000000000, 0.000000000000000000 ) ;
#130 = CARTESIAN_POINT ( 'NONE',  ( 5.204748896376250699E-17, 14.00000000000000000, 0.4249999999999999889 ) ) ;
#131 = COLOUR_RGB ( '',0.2509803921568627416, 0.2509803921568627416, 0.2509803921568627416 ) ;
#132 = ORIENTED_EDGE ( 'NONE', *, *, #163, .F. ) ;
#133 = ADVANCED_FACE ( 'NONE', ( #177, #52 ), #17, .F. ) ;
#134 = VERTEX_POINT ( 'NONE', #68 ) ;
#135 = APPLICATION_PROTOCOL_DEFINITION ( 'draft international standard', 'automotive_design', 1998, #22 ) ;
#136 = CARTESIAN_POINT ( 'NONE',  ( 0.000000000000000000, 14.00000000000000000, 0.000000000000000000 ) ) ;
#137 = ADVANCED_FACE ( 'NONE', ( #50 ), #210, .T. ) ;
#138 = ORIENTED_EDGE ( 'NONE', *, *, #206, .T. ) ;
#139 = ORIENTED_EDGE ( 'NONE', *, *, #37, .F. ) ;
#140 = MECHANICAL_DESIGN_GEOMETRIC_PRESENTATION_REPRESENTATION (  '', ( #62 ), #195 ) ;
#141 = AXIS2_PLACEMENT_3D ( 'NONE', #182, #91, #222 ) ;
#142 = MECHANICAL_DESIGN_GEOMETRIC_PRESENTATION_REPRESENTATION (  '', ( #102 ), #185 ) ;
#143 = LENGTH_MEASURE_WITH_UNIT ( LENGTH_MEASURE( 0.02539999999999999897 ), #148 );
#144 =( NAMED_UNIT ( * ) SI_UNIT ( $, .STERADIAN. ) SOLID_ANGLE_UNIT ( ) );
#145 = LINE ( 'NONE', #205, #166 ) ;
#146 = DIRECTION ( 'NONE',  ( -0.000000000000000000, -1.000000000000000000, -0.000000000000000000 ) ) ;
#147 = VECTOR ( 'NONE', #156, 39.37007874015748143 ) ;
#148 =( LENGTH_UNIT ( ) NAMED_UNIT ( * ) SI_UNIT ( $, .METRE. ) );
#149 = CIRCLE ( 'NONE', #47, 0.5250000000000000222 ) ;
#150 = DIRECTION ( 'NONE',  ( 0.000000000000000000, 0.000000000000000000, 1.000000000000000000 ) ) ;
#151 = PRODUCT_RELATED_PRODUCT_CATEGORY ( 'part', '', ( #200 ) ) ;
#152 = CIRCLE ( 'NONE', #105, 0.5250000000000000222 ) ;
#153 = AXIS2_PLACEMENT_3D ( 'NONE', #110, #146, #164 ) ;
#154 = FACE_OUTER_BOUND ( 'NONE', #79, .T. ) ;
#155 = APPLICATION_PROTOCOL_DEFINITION ( 'draft international standard', 'automotive_design', 1998, #13 ) ;
#156 = DIRECTION ( 'NONE',  ( -0.000000000000000000, -1.000000000000000000, -0.000000000000000000 ) ) ;
#157 = EDGE_CURVE ( 'NONE', #219, #134, #165, .T. ) ;
#158 = LENGTH_MEASURE_WITH_UNIT ( LENGTH_MEASURE( 0.02539999999999999897 ), #95 );
#159 = ORIENTED_EDGE ( 'NONE', *, *, #188, .T. ) ;
#160 = AXIS2_PLACEMENT_3D ( 'NONE', #28, #15, #179 ) ;
#161 = EDGE_LOOP ( 'NONE', ( #61, #138 ) ) ;
#162 = EDGE_LOOP ( 'NONE', ( #115, #46, #45, #181 ) ) ;
#163 = EDGE_CURVE ( 'NONE', #204, #104, #152, .T. ) ;
#164 = DIRECTION ( 'NONE',  ( 0.000000000000000000, 0.000000000000000000, -1.000000000000000000 ) ) ;
#165 = LINE ( 'NONE', #130, #98 ) ;
#166 = VECTOR ( 'NONE', #114, 39.37007874015748143 ) ;
#167 = DIRECTION ( 'NONE',  ( -0.000000000000000000, -1.000000000000000000, -0.000000000000000000 ) ) ;
#168 = DIRECTION ( 'NONE',  ( -0.000000000000000000, -1.000000000000000000, -0.000000000000000000 ) ) ;
#169 = DIRECTION ( 'NONE',  ( 0.000000000000000000, 1.000000000000000000, 0.000000000000000000 ) ) ;
#170 = DIRECTION ( 'NONE',  ( -0.000000000000000000, -1.000000000000000000, -0.000000000000000000 ) ) ;
#171 = AXIS2_PLACEMENT_3D ( 'NONE', #197, #169, #150 ) ;
#172 = DIRECTION ( 'NONE',  ( 0.000000000000000000, 1.000000000000000000, 0.000000000000000000 ) ) ;
#173 = PRODUCT_DEFINITION_SHAPE ( 'NONE', 'NONE',  #63 ) ;
#174 = CIRCLE ( 'NONE', #69, 0.5250000000000000222 ) ;
#175 = ORIENTED_EDGE ( 'NONE', *, *, #112, .F. ) ;
#176 = MANIFOLD_SOLID_BREP ( 'Boss-Extrude1', #106 ) ;
#177 = FACE_OUTER_BOUND ( 'NONE', #39, .T. ) ;
#178 = EDGE_LOOP ( 'NONE', ( #123, #58, #101, #119 ) ) ;
#179 = DIRECTION ( 'NONE',  ( 0.000000000000000000, -0.000000000000000000, 1.000000000000000000 ) ) ;
#180 = VERTEX_POINT ( 'NONE', #107 ) ;
#181 = ORIENTED_EDGE ( 'NONE', *, *, #206, .F. ) ;
#182 = CARTESIAN_POINT ( 'NONE',  ( 0.000000000000000000, 14.00000000000000000, 0.000000000000000000 ) ) ;
#183 = SURFACE_STYLE_USAGE ( .BOTH. , #221 ) ;
#184 = DIRECTION ( 'NONE',  ( 0.000000000000000000, -0.000000000000000000, 1.000000000000000000 ) ) ;
#185 =( GEOMETRIC_REPRESENTATION_CONTEXT ( 3 ) GLOBAL_UNCERTAINTY_ASSIGNED_CONTEXT ( ( #187 ) ) GLOBAL_UNIT_ASSIGNED_CONTEXT ( ( #193, #85, #67 ) ) REPRESENTATION_CONTEXT ( 'NONE', 'WORKASPACE' ) );
#186 = DIRECTION ( 'NONE',  ( 0.000000000000000000, 0.000000000000000000, 1.000000000000000000 ) ) ;
#187 = UNCERTAINTY_MEASURE_WITH_UNIT (LENGTH_MEASURE( 1.000000000000000082E-05 ), #193, 'distance_accuracy_value', 'NONE');
#188 = EDGE_CURVE ( 'NONE', #180, #204, #145, .T. ) ;
#189 = DIRECTION ( 'NONE',  ( 0.000000000000000000, 0.000000000000000000, 1.000000000000000000 ) ) ;
#190 = DIRECTION ( 'NONE',  ( -0.000000000000000000, -1.000000000000000000, -0.000000000000000000 ) ) ;
#191 = AXIS2_PLACEMENT_3D ( 'NONE', #71, #168, #75 ) ;
#192 = CARTESIAN_POINT ( 'NONE',  ( 5.204748896376250699E-17, 14.00000000000000000, 0.4249999999999999889 ) ) ;
#193 =( CONVERSION_BASED_UNIT ( 'INCH', #143 ) LENGTH_UNIT ( ) NAMED_UNIT ( #89 ) );
#194 = PRESENTATION_STYLE_ASSIGNMENT (( #111 ) ) ;
#195 =( GEOMETRIC_REPRESENTATION_CONTEXT ( 3 ) GLOBAL_UNCERTAINTY_ASSIGNED_CONTEXT ( ( #220 ) ) GLOBAL_UNIT_ASSIGNED_CONTEXT ( ( #216, #218, #65 ) ) REPRESENTATION_CONTEXT ( 'NONE', 'WORKASPACE' ) );
#196 = CARTESIAN_POINT ( 'NONE',  ( 0.000000000000000000, 14.00000000000000000, -0.4249999999999999889 ) ) ;
#197 = CARTESIAN_POINT ( 'NONE',  ( 0.000000000000000000, 14.00000000000000000, 0.000000000000000000 ) ) ;
#198 = SHAPE_DEFINITION_REPRESENTATION ( #173, #215 ) ;
#199 = PLANE ( 'NONE',  #201 ) ;
#200 = PRODUCT ( 'am-4548 Horizontal Short Barrier Pipe', 'am-4548 Horizontal Short Barrier Pipe', '', ( #59 ) ) ;
#201 = AXIS2_PLACEMENT_3D ( 'NONE', #217, #76, #184 ) ;
#202 = ORIENTED_EDGE ( 'NONE', *, *, #29, .F. ) ;
#203 = ORIENTED_EDGE ( 'NONE', *, *, #92, .F. ) ;
#204 = VERTEX_POINT ( 'NONE', #19 ) ;
#205 = CARTESIAN_POINT ( 'NONE',  ( 0.000000000000000000, 14.00000000000000000, -0.5250000000000000222 ) ) ;
#206 = EDGE_CURVE ( 'NONE', #134, #82, #2, .T. ) ;
#207 = FILL_AREA_STYLE ('',( #117 ) ) ;
#208 = CYLINDRICAL_SURFACE ( 'NONE', #153, 0.4249999999999999889 ) ;
#209 =( GEOMETRIC_REPRESENTATION_CONTEXT ( 3 ) GLOBAL_UNCERTAINTY_ASSIGNED_CONTEXT ( ( #100 ) ) GLOBAL_UNIT_ASSIGNED_CONTEXT ( ( #40, #23, #144 ) ) REPRESENTATION_CONTEXT ( 'NONE', 'WORKASPACE' ) );
#210 = CYLINDRICAL_SURFACE ( 'NONE', #94, 0.5250000000000000222 ) ;
#211 = ORIENTED_EDGE ( 'NONE', *, *, #73, .F. ) ;
#212 = CIRCLE ( 'NONE', #141, 0.4249999999999999889 ) ;
#213 = FILL_AREA_STYLE_COLOUR ( '', #131 ) ;
#214 = CARTESIAN_POINT ( 'NONE',  ( 0.000000000000000000, -14.00000000000000000, 0.000000000000000000 ) ) ;
#215 = ADVANCED_BREP_SHAPE_REPRESENTATION ( 'am-4548 Horizontal Short Barrier Pipe', ( #176, #16 ), #209 ) ;
#216 =( CONVERSION_BASED_UNIT ( 'INCH', #158 ) LENGTH_UNIT ( ) NAMED_UNIT ( #129 ) );
#217 = CARTESIAN_POINT ( 'NONE',  ( 0.000000000000000000, 14.00000000000000000, 0.000000000000000000 ) ) ;
#218 =( NAMED_UNIT ( * ) PLANE_ANGLE_UNIT ( ) SI_UNIT ( $, .RADIAN. ) );
#219 = VERTEX_POINT ( 'NONE', #192 ) ;
#220 = UNCERTAINTY_MEASURE_WITH_UNIT (LENGTH_MEASURE( 1.000000000000000082E-05 ), #216, 'distance_accuracy_value', 'NONE');
#221 = SURFACE_SIDE_STYLE ('',( #33 ) ) ;
#222 = DIRECTION ( 'NONE',  ( 0.000000000000000000, 0.000000000000000000, 1.000000000000000000 ) ) ;
#223 = VERTEX_POINT ( 'NONE', #108 ) ;
ENDSEC;
END-ISO-10303-21;
