ISO-10303-21;
HEADER;
FILE_DESCRIPTION (( 'STEP AP214' ),
    '1' );
FILE_NAME ('am-4420 2.25IN HD Mecanum Roller Axle.STEP',
    '2021-09-13T16:23:13',
    ( '' ),
    ( '' ),
    'SwSTEP 2.0',
    'SolidWorks 2021',
    '' );
FILE_SCHEMA (( 'AUTOMOTIVE_DESIGN' ));
ENDSEC;

DATA;
#1 = SURFACE_SIDE_STYLE ('',( #178 ) ) ;
#2 = ADVANCED_FACE ( 'NONE', ( #235, #58 ), #166, .F. ) ;
#3 = VERTEX_POINT ( 'NONE', #246 ) ;
#4 = CARTESIAN_POINT ( 'NONE',  ( 0.3300000000000000155, 0.000000000000000000, 0.04449999999999991462 ) ) ;
#5 = DIRECTION ( 'NONE',  ( 0.000000000000000000, 0.000000000000000000, -1.000000000000000000 ) ) ;
#6 = ADVANCED_FACE ( 'NONE', ( #215, #233 ), #54, .T. ) ;
#7 = DIRECTION ( 'NONE',  ( -1.000000000000000000, -0.000000000000000000, -0.000000000000000000 ) ) ;
#8 = AXIS2_PLACEMENT_3D ( 'NONE', #104, #103, #239 ) ;
#9 = ORIENTED_EDGE ( 'NONE', *, *, #255, .F. ) ;
#10 = EDGE_CURVE ( 'NONE', #65, #65, #74, .T. ) ;
#11 = UNCERTAINTY_MEASURE_WITH_UNIT (LENGTH_MEASURE( 1.000000000000000082E-05 ), #35, 'distance_accuracy_value', 'NONE');
#12 = ORIENTED_EDGE ( 'NONE', *, *, #114, .F. ) ;
#13 = SURFACE_STYLE_USAGE ( .BOTH. , #55 ) ;
#14 = ORIENTED_EDGE ( 'NONE', *, *, #177, .T. ) ;
#15 = APPLICATION_PROTOCOL_DEFINITION ( 'draft international standard', 'automotive_design', 1998, #244 ) ;
#16 = EDGE_LOOP ( 'NONE', ( #56 ) ) ;
#17 = ORIENTED_EDGE ( 'NONE', *, *, #196, .F. ) ;
#18 =( LENGTH_UNIT ( ) NAMED_UNIT ( * ) SI_UNIT ( $, .METRE. ) );
#19 = AXIS2_PLACEMENT_3D ( 'NONE', #92, #7, #248 ) ;
#20 = EDGE_CURVE ( 'NONE', #106, #106, #87, .T. ) ;
#21 = CARTESIAN_POINT ( 'NONE',  ( 1.489999999999999991, 0.000000000000000000, 0.000000000000000000 ) ) ;
#22 = UNCERTAINTY_MEASURE_WITH_UNIT (LENGTH_MEASURE( 1.000000000000000082E-05 ), #243, 'distance_accuracy_value', 'NONE');
#23 = CARTESIAN_POINT ( 'NONE',  ( 1.500000000000000222, 0.000000000000000000, 0.000000000000000000 ) ) ;
#24 = PLANE ( 'NONE',  #136 ) ;
#25 = UNCERTAINTY_MEASURE_WITH_UNIT (LENGTH_MEASURE( 1.000000000000000082E-05 ), #184, 'distance_accuracy_value', 'NONE');
#26 = VERTEX_POINT ( 'NONE', #229 ) ;
#27 = AXIS2_PLACEMENT_3D ( 'NONE', #171, #155, #222 ) ;
#28 = CARTESIAN_POINT ( 'NONE',  ( 0.01000000000000020144, 0.000000000000000000, -0.09375000000000002776 ) ) ;
#29 = CARTESIAN_POINT ( 'NONE',  ( 0.000000000000000000, 0.000000000000000000, 0.000000000000000000 ) ) ;
#30 = EDGE_CURVE ( 'NONE', #49, #49, #96, .T. ) ;
#31 = PRESENTATION_LAYER_ASSIGNMENT (  '', '', ( #82 ) ) ;
#32 = EDGE_LOOP ( 'NONE', ( #212 ) ) ;
#33 = ORIENTED_EDGE ( 'NONE', *, *, #30, .F. ) ;
#34 = LENGTH_MEASURE_WITH_UNIT ( LENGTH_MEASURE( 0.02539999999999999897 ), #197 );
#35 =( CONVERSION_BASED_UNIT ( 'INCH', #80 ) LENGTH_UNIT ( ) NAMED_UNIT ( #257 ) );
#36 = CLOSED_SHELL ( 'NONE', ( #205, #6, #245, #121, #98, #50, #2, #57, #208 ) ) ;
#37 = ORIENTED_EDGE ( 'NONE', *, *, #10, .F. ) ;
#38 = DIMENSIONAL_EXPONENTS ( 1.000000000000000000, 0.000000000000000000, 0.000000000000000000, 0.000000000000000000, 0.000000000000000000, 0.000000000000000000, 0.000000000000000000 ) ;
#39 = SURFACE_STYLE_USAGE ( .BOTH. , #1 ) ;
#40 = DIRECTION ( 'NONE',  ( -1.000000000000000000, -0.000000000000000000, -0.000000000000000000 ) ) ;
#41 = AXIS2_PLACEMENT_3D ( 'NONE', #203, #262, #202 ) ;
#42 = CARTESIAN_POINT ( 'NONE',  ( 1.170000000000000151, 0.000000000000000000, 0.000000000000000000 ) ) ;
#43 = DIRECTION ( 'NONE',  ( 0.000000000000000000, 0.000000000000000000, -1.000000000000000000 ) ) ;
#44 = DIRECTION ( 'NONE',  ( 1.000000000000000000, -0.000000000000000000, -0.000000000000000000 ) ) ;
#45 = AXIS2_PLACEMENT_3D ( 'NONE', #132, #99, #194 ) ;
#46 = DIRECTION ( 'NONE',  ( -1.000000000000000000, -0.000000000000000000, -0.000000000000000000 ) ) ;
#47 = LENGTH_MEASURE_WITH_UNIT ( LENGTH_MEASURE( 0.02539999999999999897 ), #142 );
#48 = MECHANICAL_DESIGN_GEOMETRIC_PRESENTATION_REPRESENTATION (  '', ( #220 ), #192 ) ;
#49 = VERTEX_POINT ( 'NONE', #180 ) ;
#50 = ADVANCED_FACE ( 'NONE', ( #122 ), #228, .F. ) ;
#51 = EDGE_LOOP ( 'NONE', ( #150 ) ) ;
#52 = SHAPE_DEFINITION_REPRESENTATION ( #195, #148 ) ;
#53 = AXIS2_PLACEMENT_3D ( 'NONE', #162, #46, #209 ) ;
#54 = CYLINDRICAL_SURFACE ( 'NONE', #45, 0.09375000000000002776 ) ;
#55 = SURFACE_SIDE_STYLE ('',( #134 ) ) ;
#56 = ORIENTED_EDGE ( 'NONE', *, *, #255, .T. ) ;
#57 = ADVANCED_FACE ( 'NONE', ( #84, #200 ), #161, .T. ) ;
#58 = FACE_OUTER_BOUND ( 'NONE', #169, .T. ) ;
#59 = CIRCLE ( 'NONE', #19, 0.08374999999999989397 ) ;
#60 = ORIENTED_EDGE ( 'NONE', *, *, #196, .T. ) ;
#61 =( NAMED_UNIT ( * ) SI_UNIT ( $, .STERADIAN. ) SOLID_ANGLE_UNIT ( ) );
#62 = DIRECTION ( 'NONE',  ( 0.000000000000000000, 0.000000000000000000, -1.000000000000000000 ) ) ;
#63 = DIRECTION ( 'NONE',  ( 1.000000000000000000, 0.000000000000000000, 0.000000000000000000 ) ) ;
#64 = CIRCLE ( 'NONE', #53, 0.04449999999999991462 ) ;
#65 = VERTEX_POINT ( 'NONE', #28 ) ;
#66 = ORIENTED_EDGE ( 'NONE', *, *, #77, .F. ) ;
#67 = COLOUR_RGB ( '',0.8980392156862745390, 0.9176470588235293713, 0.9294117647058823817 ) ;
#68 = CONICAL_SURFACE ( 'NONE', #213, 0.04449999999999992156, 1.029744258676651869 ) ;
#69 = CARTESIAN_POINT ( 'NONE',  ( 1.500000000000000222, 0.09375000000000002776, 0.000000000000000000 ) ) ;
#70 = UNCERTAINTY_MEASURE_WITH_UNIT (LENGTH_MEASURE( 1.000000000000000082E-05 ), #224, 'distance_accuracy_value', 'NONE');
#71 = ORIENTED_EDGE ( 'NONE', *, *, #20, .F. ) ;
#72 = FILL_AREA_STYLE ('',( #147 ) ) ;
#73 = DIRECTION ( 'NONE',  ( 0.000000000000000000, 0.000000000000000000, 1.000000000000000000 ) ) ;
#74 = CIRCLE ( 'NONE', #109, 0.09375000000000002776 ) ;
#75 = DIRECTION ( 'NONE',  ( 0.000000000000000000, 0.000000000000000000, 1.000000000000000000 ) ) ;
#76 = AXIS2_PLACEMENT_3D ( 'NONE', #23, #44, #62 ) ;
#77 = EDGE_CURVE ( 'NONE', #26, #26, #157, .T. ) ;
#78 = CARTESIAN_POINT ( 'NONE',  ( 0.000000000000000000, 0.000000000000000000, 0.000000000000000000 ) ) ;
#79 = EDGE_LOOP ( 'NONE', ( #71 ) ) ;
#80 = LENGTH_MEASURE_WITH_UNIT ( LENGTH_MEASURE( 0.02539999999999999897 ), #232 );
#81 = DIRECTION ( 'NONE',  ( 1.000000000000000000, 0.000000000000000000, 0.000000000000000000 ) ) ;
#82 = STYLED_ITEM ( 'NONE', ( #193 ), #148 ) ;
#83 =( NAMED_UNIT ( * ) PLANE_ANGLE_UNIT ( ) SI_UNIT ( $, .RADIAN. ) );
#84 = FACE_BOUND ( 'NONE', #170, .T. ) ;
#85 = PRODUCT_DEFINITION ( 'UNKNOWN', '', #88, #129 ) ;
#86 = FILL_AREA_STYLE_COLOUR ( '', #199 ) ;
#87 = CIRCLE ( 'NONE', #216, 0.04449999999999992156 ) ;
#88 = PRODUCT_DEFINITION_FORMATION_WITH_SPECIFIED_SOURCE ( 'ANY', '', #181, .NOT_KNOWN. ) ;
#89 = FILL_AREA_STYLE_COLOUR ( '', #117 ) ;
#90 = VERTEX_POINT ( 'NONE', #126 ) ;
#91 = COLOUR_RGB ( '',0.8980392156862745390, 0.9176470588235293713, 0.9294117647058823817 ) ;
#92 = CARTESIAN_POINT ( 'NONE',  ( 0.000000000000000000, 0.000000000000000000, 0.000000000000000000 ) ) ;
#93 = DIRECTION ( 'NONE',  ( 0.000000000000000000, 0.000000000000000000, 1.000000000000000000 ) ) ;
#94 =( NAMED_UNIT ( * ) SI_UNIT ( $, .STERADIAN. ) SOLID_ANGLE_UNIT ( ) );
#95 =( NAMED_UNIT ( * ) PLANE_ANGLE_UNIT ( ) SI_UNIT ( $, .RADIAN. ) );
#96 = CIRCLE ( 'NONE', #123, 0.08374999999999975520 ) ;
#97 = DIMENSIONAL_EXPONENTS ( 1.000000000000000000, 0.000000000000000000, 0.000000000000000000, 0.000000000000000000, 0.000000000000000000, 0.000000000000000000, 0.000000000000000000 ) ;
#98 = ADVANCED_FACE ( 'NONE', ( #102, #264 ), #221, .F. ) ;
#99 = DIRECTION ( 'NONE',  ( -1.000000000000000000, -0.000000000000000000, -0.000000000000000000 ) ) ;
#100 = EDGE_LOOP ( 'NONE', ( #60 ) ) ;
#101 = MECHANICAL_DESIGN_GEOMETRIC_PRESENTATION_REPRESENTATION (  '', ( #82 ), #265 ) ;
#102 = FACE_OUTER_BOUND ( 'NONE', #79, .T. ) ;
#103 = DIRECTION ( 'NONE',  ( -1.000000000000000000, -0.000000000000000000, -0.000000000000000000 ) ) ;
#104 = CARTESIAN_POINT ( 'NONE',  ( 0.3300000000000000155, 0.000000000000000000, 0.000000000000000000 ) ) ;
#105 = DIRECTION ( 'NONE',  ( -0.000000000000000000, 0.000000000000000000, 1.000000000000000000 ) ) ;
#106 = VERTEX_POINT ( 'NONE', #185 ) ;
#107 = APPLICATION_CONTEXT ( 'automotive_design' ) ;
#108 = LENGTH_MEASURE_WITH_UNIT ( LENGTH_MEASURE( 0.02539999999999999897 ), #249 );
#109 = AXIS2_PLACEMENT_3D ( 'NONE', #260, #81, #240 ) ;
#110 = ORIENTED_EDGE ( 'NONE', *, *, #20, .T. ) ;
#111 = EDGE_LOOP ( 'NONE', ( #12 ) ) ;
#112 = APPLICATION_PROTOCOL_DEFINITION ( 'draft international standard', 'automotive_design', 1998, #107 ) ;
#113 = PRESENTATION_LAYER_ASSIGNMENT (  '', '', ( #183 ) ) ;
#114 = EDGE_CURVE ( 'NONE', #143, #143, #173, .T. ) ;
#115 = FILL_AREA_STYLE ('',( #234 ) ) ;
#116 = FILL_AREA_STYLE ('',( #86 ) ) ;
#117 = COLOUR_RGB ( '',0.8980392156862745390, 0.9176470588235293713, 0.9294117647058823817 ) ;
#118 = FACE_OUTER_BOUND ( 'NONE', #251, .T. ) ;
#119 = SURFACE_SIDE_STYLE ('',( #198 ) ) ;
#120 = DIRECTION ( 'NONE',  ( 1.000000000000000000, -0.000000000000000000, -0.000000000000000000 ) ) ;
#121 = ADVANCED_FACE ( 'NONE', ( #118 ), #68, .F. ) ;
#122 = FACE_OUTER_BOUND ( 'NONE', #100, .T. ) ;
#123 = AXIS2_PLACEMENT_3D ( 'NONE', #263, #154, #140 ) ;
#124 = MANIFOLD_SOLID_BREP ( 'Chamfer1', #36 ) ;
#125 = DIRECTION ( 'NONE',  ( -1.000000000000000000, -0.000000000000000000, -0.000000000000000000 ) ) ;
#126 = CARTESIAN_POINT ( 'NONE',  ( 0.000000000000000000, 0.000000000000000000, -0.08374999999999989397 ) ) ;
#127 =( GEOMETRIC_REPRESENTATION_CONTEXT ( 3 ) GLOBAL_UNCERTAINTY_ASSIGNED_CONTEXT ( ( #70 ) ) GLOBAL_UNIT_ASSIGNED_CONTEXT ( ( #224, #182, #204 ) ) REPRESENTATION_CONTEXT ( 'NONE', 'WORKASPACE' ) );
#128 = FACE_BOUND ( 'NONE', #111, .T. ) ;
#129 = PRODUCT_DEFINITION_CONTEXT ( 'detailed design', #107, 'design' ) ;
#130 = EDGE_LOOP ( 'NONE', ( #9 ) ) ;
#131 = PRESENTATION_LAYER_ASSIGNMENT (  '', '', ( #220 ) ) ;
#132 = CARTESIAN_POINT ( 'NONE',  ( 0.000000000000000000, 0.000000000000000000, 0.000000000000000000 ) ) ;
#133 = SURFACE_STYLE_USAGE ( .BOTH. , #137 ) ;
#134 = SURFACE_STYLE_FILL_AREA ( #72 ) ;
#135 = PRESENTATION_LAYER_ASSIGNMENT (  '', '', ( #241 ) ) ;
#136 = AXIS2_PLACEMENT_3D ( 'NONE', #144, #63, #5 ) ;
#137 = SURFACE_SIDE_STYLE ('',( #254 ) ) ;
#138 = CARTESIAN_POINT ( 'NONE',  ( -7.654042494670968523E-19, 0.000000000000000000, 0.000000000000000000 ) ) ;
#139 = DIMENSIONAL_EXPONENTS ( 1.000000000000000000, 0.000000000000000000, 0.000000000000000000, 0.000000000000000000, 0.000000000000000000, 0.000000000000000000, 0.000000000000000000 ) ;
#140 = DIRECTION ( 'NONE',  ( 0.000000000000000000, 0.000000000000000000, 1.000000000000000000 ) ) ;
#141 = VERTEX_POINT ( 'NONE', #4 ) ;
#142 =( LENGTH_UNIT ( ) NAMED_UNIT ( * ) SI_UNIT ( $, .METRE. ) );
#143 = VERTEX_POINT ( 'NONE', #210 ) ;
#144 = CARTESIAN_POINT ( 'NONE',  ( 0.000000000000000000, 0.000000000000000000, 0.000000000000000000 ) ) ;
#145 = EDGE_LOOP ( 'NONE', ( #66 ) ) ;
#146 = FACE_BOUND ( 'NONE', #130, .T. ) ;
#147 = FILL_AREA_STYLE_COLOUR ( '', #91 ) ;
#148 = ADVANCED_BREP_SHAPE_REPRESENTATION ( 'am-4420 2.25IN HD Mecanum Roller Axle', ( #124, #247 ), #186 ) ;
#149 =( CONVERSION_BASED_UNIT ( 'INCH', #34 ) LENGTH_UNIT ( ) NAMED_UNIT ( #139 ) );
#150 = ORIENTED_EDGE ( 'NONE', *, *, #177, .F. ) ;
#151 = EDGE_LOOP ( 'NONE', ( #230 ) ) ;
#152 = EDGE_LOOP ( 'NONE', ( #17 ) ) ;
#153 = CIRCLE ( 'NONE', #253, 0.09375000000000002776 ) ;
#154 = DIRECTION ( 'NONE',  ( 1.000000000000000000, 0.000000000000000000, 0.000000000000000000 ) ) ;
#155 = DIRECTION ( 'NONE',  ( 1.000000000000000000, -0.000000000000000000, -0.000000000000000000 ) ) ;
#156 = DIRECTION ( 'NONE',  ( 0.000000000000000000, 0.000000000000000000, -1.000000000000000000 ) ) ;
#157 = CIRCLE ( 'NONE', #76, 0.04449999999999995626 ) ;
#158 = SURFACE_STYLE_USAGE ( .BOTH. , #119 ) ;
#159 = PRESENTATION_STYLE_ASSIGNMENT (( #39 ) ) ;
#160 = DIRECTION ( 'NONE',  ( 0.000000000000000000, 0.000000000000000000, -1.000000000000000000 ) ) ;
#161 = CONICAL_SURFACE ( 'NONE', #41, 0.09375000000000002776, 0.7853981633974533860 ) ;
#162 = CARTESIAN_POINT ( 'NONE',  ( 0.3300000000000000155, 0.000000000000000000, 0.000000000000000000 ) ) ;
#163 = DIRECTION ( 'NONE',  ( 1.000000000000000000, 0.000000000000000000, 0.000000000000000000 ) ) ;
#164 = CONICAL_SURFACE ( 'NONE', #207, 0.08374999999999989397, 0.7853981633974447263 ) ;
#165 = PRODUCT_CONTEXT ( 'NONE', #244, 'mechanical' ) ;
#166 = CYLINDRICAL_SURFACE ( 'NONE', #211, 0.04449999999999992850 ) ;
#167 = CARTESIAN_POINT ( 'NONE',  ( 0.000000000000000000, 0.000000000000000000, 0.000000000000000000 ) ) ;
#168 = MECHANICAL_DESIGN_GEOMETRIC_PRESENTATION_REPRESENTATION (  '', ( #183 ), #127 ) ;
#169 = EDGE_LOOP ( 'NONE', ( #237 ) ) ;
#170 = EDGE_LOOP ( 'NONE', ( #33 ) ) ;
#171 = CARTESIAN_POINT ( 'NONE',  ( 1.500000000000000222, 0.000000000000000000, 0.000000000000000000 ) ) ;
#172 = MECHANICAL_DESIGN_GEOMETRIC_PRESENTATION_REPRESENTATION (  '', ( #241 ), #238 ) ;
#173 = CIRCLE ( 'NONE', #227, 0.04449999999999995626 ) ;
#174 = CARTESIAN_POINT ( 'NONE',  ( 1.170000000000000151, 0.000000000000000000, 0.000000000000000000 ) ) ;
#175 = FILL_AREA_STYLE ('',( #89 ) ) ;
#176 = DIRECTION ( 'NONE',  ( 1.000000000000000000, -0.000000000000000000, -0.000000000000000000 ) ) ;
#177 = EDGE_CURVE ( 'NONE', #3, #3, #153, .T. ) ;
#178 = SURFACE_STYLE_FILL_AREA ( #175 ) ;
#179 = FACE_OUTER_BOUND ( 'NONE', #191, .T. ) ;
#180 = CARTESIAN_POINT ( 'NONE',  ( 1.500000000000000222, 0.000000000000000000, 0.08374999999999975520 ) ) ;
#181 = PRODUCT ( 'am-4420 2.25IN HD Mecanum Roller Axle', 'am-4420 2.25IN HD Mecanum Roller Axle', '', ( #165 ) ) ;
#182 =( NAMED_UNIT ( * ) PLANE_ANGLE_UNIT ( ) SI_UNIT ( $, .RADIAN. ) );
#183 = STYLED_ITEM ( 'NONE', ( #159 ), #124 ) ;
#184 =( CONVERSION_BASED_UNIT ( 'INCH', #47 ) LENGTH_UNIT ( ) NAMED_UNIT ( #97 ) );
#185 = CARTESIAN_POINT ( 'NONE',  ( 1.170000000000000151, 0.000000000000000000, -0.04449999999999992156 ) ) ;
#186 =( GEOMETRIC_REPRESENTATION_CONTEXT ( 3 ) GLOBAL_UNCERTAINTY_ASSIGNED_CONTEXT ( ( #25 ) ) GLOBAL_UNIT_ASSIGNED_CONTEXT ( ( #184, #190, #259 ) ) REPRESENTATION_CONTEXT ( 'NONE', 'WORKASPACE' ) );
#187 = PRESENTATION_STYLE_ASSIGNMENT (( #133 ) ) ;
#188 =( NAMED_UNIT ( * ) SI_UNIT ( $, .STERADIAN. ) SOLID_ANGLE_UNIT ( ) );
#189 = ORIENTED_EDGE ( 'NONE', *, *, #30, .T. ) ;
#190 =( NAMED_UNIT ( * ) PLANE_ANGLE_UNIT ( ) SI_UNIT ( $, .RADIAN. ) );
#191 = EDGE_LOOP ( 'NONE', ( #189 ) ) ;
#192 =( GEOMETRIC_REPRESENTATION_CONTEXT ( 3 ) GLOBAL_UNCERTAINTY_ASSIGNED_CONTEXT ( ( #22 ) ) GLOBAL_UNIT_ASSIGNED_CONTEXT ( ( #243, #83, #61 ) ) REPRESENTATION_CONTEXT ( 'NONE', 'WORKASPACE' ) );
#193 = PRESENTATION_STYLE_ASSIGNMENT (( #13 ) ) ;
#194 = DIRECTION ( 'NONE',  ( 0.000000000000000000, 0.000000000000000000, 1.000000000000000000 ) ) ;
#195 = PRODUCT_DEFINITION_SHAPE ( 'NONE', 'NONE',  #85 ) ;
#196 = EDGE_CURVE ( 'NONE', #141, #141, #64, .T. ) ;
#197 =( LENGTH_UNIT ( ) NAMED_UNIT ( * ) SI_UNIT ( $, .METRE. ) );
#198 = SURFACE_STYLE_FILL_AREA ( #116 ) ;
#199 = COLOUR_RGB ( '',0.8980392156862745390, 0.9176470588235293713, 0.9294117647058823817 ) ;
#200 = FACE_OUTER_BOUND ( 'NONE', #51, .T. ) ;
#201 = DIMENSIONAL_EXPONENTS ( 1.000000000000000000, 0.000000000000000000, 0.000000000000000000, 0.000000000000000000, 0.000000000000000000, 0.000000000000000000, 0.000000000000000000 ) ;
#202 = DIRECTION ( 'NONE',  ( 0.000000000000000000, 0.000000000000000000, 1.000000000000000000 ) ) ;
#203 = CARTESIAN_POINT ( 'NONE',  ( 1.489999999999999991, 0.000000000000000000, 0.000000000000000000 ) ) ;
#204 =( NAMED_UNIT ( * ) SI_UNIT ( $, .STERADIAN. ) SOLID_ANGLE_UNIT ( ) );
#205 = ADVANCED_FACE ( 'NONE', ( #206, #128 ), #24, .F. ) ;
#206 = FACE_OUTER_BOUND ( 'NONE', #16, .T. ) ;
#207 = AXIS2_PLACEMENT_3D ( 'NONE', #29, #163, #160 ) ;
#208 = ADVANCED_FACE ( 'NONE', ( #252, #146 ), #164, .T. ) ;
#209 = DIRECTION ( 'NONE',  ( 0.000000000000000000, 0.000000000000000000, 1.000000000000000000 ) ) ;
#210 = CARTESIAN_POINT ( 'NONE',  ( -7.654042494670968523E-19, 0.000000000000000000, 0.04449999999999995626 ) ) ;
#211 = AXIS2_PLACEMENT_3D ( 'NONE', #78, #256, #73 ) ;
#212 = ORIENTED_EDGE ( 'NONE', *, *, #10, .T. ) ;
#213 = AXIS2_PLACEMENT_3D ( 'NONE', #42, #176, #43 ) ;
#214 = DIRECTION ( 'NONE',  ( 1.000000000000000000, 0.000000000000000000, 0.000000000000000000 ) ) ;
#215 = FACE_OUTER_BOUND ( 'NONE', #258, .T. ) ;
#216 = AXIS2_PLACEMENT_3D ( 'NONE', #174, #120, #156 ) ;
#217 = PRODUCT_RELATED_PRODUCT_CATEGORY ( 'part', '', ( #181 ) ) ;
#218 = EDGE_LOOP ( 'NONE', ( #37 ) ) ;
#219 = DIRECTION ( 'NONE',  ( 0.000000000000000000, 0.000000000000000000, 1.000000000000000000 ) ) ;
#220 = STYLED_ITEM ( 'NONE', ( #223 ), #98 ) ;
#221 = CYLINDRICAL_SURFACE ( 'NONE', #27, 0.04449999999999993544 ) ;
#222 = DIRECTION ( 'NONE',  ( 0.000000000000000000, 0.000000000000000000, -1.000000000000000000 ) ) ;
#223 = PRESENTATION_STYLE_ASSIGNMENT (( #158 ) ) ;
#224 =( CONVERSION_BASED_UNIT ( 'INCH', #108 ) LENGTH_UNIT ( ) NAMED_UNIT ( #201 ) );
#225 = FACE_BOUND ( 'NONE', #145, .T. ) ;
#226 = DIRECTION ( 'NONE',  ( -1.000000000000000000, 0.000000000000000000, -0.000000000000000000 ) ) ;
#227 = AXIS2_PLACEMENT_3D ( 'NONE', #138, #40, #219 ) ;
#228 = CONICAL_SURFACE ( 'NONE', #8, 0.04449999999999991462, 1.029744258676651647 ) ;
#229 = CARTESIAN_POINT ( 'NONE',  ( 1.500000000000000222, 0.000000000000000000, -0.04449999999999995626 ) ) ;
#230 = ORIENTED_EDGE ( 'NONE', *, *, #77, .T. ) ;
#231 = UNCERTAINTY_MEASURE_WITH_UNIT (LENGTH_MEASURE( 1.000000000000000082E-05 ), #149, 'distance_accuracy_value', 'NONE');
#232 =( LENGTH_UNIT ( ) NAMED_UNIT ( * ) SI_UNIT ( $, .METRE. ) );
#233 = FACE_OUTER_BOUND ( 'NONE', #32, .T. ) ;
#234 = FILL_AREA_STYLE_COLOUR ( '', #67 ) ;
#235 = FACE_OUTER_BOUND ( 'NONE', #152, .T. ) ;
#236 =( NAMED_UNIT ( * ) PLANE_ANGLE_UNIT ( ) SI_UNIT ( $, .RADIAN. ) );
#237 = ORIENTED_EDGE ( 'NONE', *, *, #114, .T. ) ;
#238 =( GEOMETRIC_REPRESENTATION_CONTEXT ( 3 ) GLOBAL_UNCERTAINTY_ASSIGNED_CONTEXT ( ( #231 ) ) GLOBAL_UNIT_ASSIGNED_CONTEXT ( ( #149, #95, #94 ) ) REPRESENTATION_CONTEXT ( 'NONE', 'WORKASPACE' ) );
#239 = DIRECTION ( 'NONE',  ( 0.000000000000000000, 0.000000000000000000, 1.000000000000000000 ) ) ;
#240 = DIRECTION ( 'NONE',  ( 0.000000000000000000, 0.000000000000000000, -1.000000000000000000 ) ) ;
#241 = STYLED_ITEM ( 'NONE', ( #187 ), #2 ) ;
#242 = AXIS2_PLACEMENT_3D ( 'NONE', #69, #226, #105 ) ;
#243 =( CONVERSION_BASED_UNIT ( 'INCH', #261 ) LENGTH_UNIT ( ) NAMED_UNIT ( #38 ) );
#244 = APPLICATION_CONTEXT ( 'automotive_design' ) ;
#245 = ADVANCED_FACE ( 'NONE', ( #179, #225 ), #250, .F. ) ;
#246 = CARTESIAN_POINT ( 'NONE',  ( 1.489999999999999991, 0.000000000000000000, 0.09375000000000002776 ) ) ;
#247 = AXIS2_PLACEMENT_3D ( 'NONE', #167, #75, #214 ) ;
#248 = DIRECTION ( 'NONE',  ( 0.000000000000000000, 0.000000000000000000, -1.000000000000000000 ) ) ;
#249 =( LENGTH_UNIT ( ) NAMED_UNIT ( * ) SI_UNIT ( $, .METRE. ) );
#250 = PLANE ( 'NONE',  #242 ) ;
#251 = EDGE_LOOP ( 'NONE', ( #110 ) ) ;
#252 = FACE_OUTER_BOUND ( 'NONE', #218, .T. ) ;
#253 = AXIS2_PLACEMENT_3D ( 'NONE', #21, #125, #93 ) ;
#254 = SURFACE_STYLE_FILL_AREA ( #115 ) ;
#255 = EDGE_CURVE ( 'NONE', #90, #90, #59, .T. ) ;
#256 = DIRECTION ( 'NONE',  ( -1.000000000000000000, -0.000000000000000000, -0.000000000000000000 ) ) ;
#257 = DIMENSIONAL_EXPONENTS ( 1.000000000000000000, 0.000000000000000000, 0.000000000000000000, 0.000000000000000000, 0.000000000000000000, 0.000000000000000000, 0.000000000000000000 ) ;
#258 = EDGE_LOOP ( 'NONE', ( #14 ) ) ;
#259 =( NAMED_UNIT ( * ) SI_UNIT ( $, .STERADIAN. ) SOLID_ANGLE_UNIT ( ) );
#260 = CARTESIAN_POINT ( 'NONE',  ( 0.01000000000000020144, 0.000000000000000000, 0.000000000000000000 ) ) ;
#261 = LENGTH_MEASURE_WITH_UNIT ( LENGTH_MEASURE( 0.02539999999999999897 ), #18 );
#262 = DIRECTION ( 'NONE',  ( -1.000000000000000000, -0.000000000000000000, -0.000000000000000000 ) ) ;
#263 = CARTESIAN_POINT ( 'NONE',  ( 1.500000000000000222, 0.000000000000000000, 0.000000000000000000 ) ) ;
#264 = FACE_OUTER_BOUND ( 'NONE', #151, .T. ) ;
#265 =( GEOMETRIC_REPRESENTATION_CONTEXT ( 3 ) GLOBAL_UNCERTAINTY_ASSIGNED_CONTEXT ( ( #11 ) ) GLOBAL_UNIT_ASSIGNED_CONTEXT ( ( #35, #236, #188 ) ) REPRESENTATION_CONTEXT ( 'NONE', 'WORKASPACE' ) );
ENDSEC;
END-ISO-10303-21;
