ISO-10303-21;
HEADER;
FILE_DESCRIPTION (( 'STEP AP214' ),
    '1' );
FILE_NAME ('am-4809 High Junction Pole.STEP',
    '2022-09-02T19:10:56',
    ( '' ),
    ( '' ),
    'SwSTEP 2.0',
    'SolidWorks 2022',
    '' );
FILE_SCHEMA (( 'AUTOMOTIVE_DESIGN' ));
ENDSEC;

DATA;
#1 = CARTESIAN_POINT ( 'NONE',  ( 0.000000000000000000, 15.00000000000000000, 0.5250000000000000222 ) ) ;
#2 =( CONVERSION_BASED_UNIT ( 'INCH', #134 ) LENGTH_UNIT ( ) NAMED_UNIT ( #13 ) );
#3 =( NAMED_UNIT ( * ) SI_UNIT ( $, .STERADIAN. ) SOLID_ANGLE_UNIT ( ) );
#4 = CARTESIAN_POINT ( 'NONE',  ( 0.000000000000000000, 15.00000000000000000, 0.4249999999999999889 ) ) ;
#5 = LENGTH_MEASURE_WITH_UNIT ( LENGTH_MEASURE( 0.02539999999999999897 ), #138 );
#6 = MECHANICAL_DESIGN_GEOMETRIC_PRESENTATION_REPRESENTATION (  '', ( #15 ), #122 ) ;
#7 = ORIENTED_EDGE ( 'NONE', *, *, #117, .F. ) ;
#8 = ADVANCED_FACE ( 'NONE', ( #76, #140 ), #77, .T. ) ;
#9 = CIRCLE ( 'NONE', #26, 0.5250000000000000222 ) ;
#10 = DIRECTION ( 'NONE',  ( 0.000000000000000000, 1.000000000000000000, 0.000000000000000000 ) ) ;
#11 = DIRECTION ( 'NONE',  ( 0.000000000000000000, 1.000000000000000000, 0.000000000000000000 ) ) ;
#12 =( LENGTH_UNIT ( ) NAMED_UNIT ( * ) SI_UNIT ( $, .METRE. ) );
#13 = DIMENSIONAL_EXPONENTS ( 1.000000000000000000, 0.000000000000000000, 0.000000000000000000, 0.000000000000000000, 0.000000000000000000, 0.000000000000000000, 0.000000000000000000 ) ;
#14 = SURFACE_SIDE_STYLE ('',( #74 ) ) ;
#15 = STYLED_ITEM ( 'NONE', ( #44 ), #125 ) ;
#16 = DIMENSIONAL_EXPONENTS ( 1.000000000000000000, 0.000000000000000000, 0.000000000000000000, 0.000000000000000000, 0.000000000000000000, 0.000000000000000000, 0.000000000000000000 ) ;
#17 = DIRECTION ( 'NONE',  ( 0.000000000000000000, -0.000000000000000000, 1.000000000000000000 ) ) ;
#18 = DIRECTION ( 'NONE',  ( 0.000000000000000000, 0.000000000000000000, -1.000000000000000000 ) ) ;
#19 = AXIS2_PLACEMENT_3D ( 'NONE', #108, #11, #110 ) ;
#20 = ORIENTED_EDGE ( 'NONE', *, *, #117, .T. ) ;
#21 = COLOUR_RGB ( '',0.9019607843137255054, 0.6980392156862744724, 0.1333333333333333315 ) ;
#22 = CARTESIAN_POINT ( 'NONE',  ( 0.000000000000000000, 15.00000000000000000, 0.000000000000000000 ) ) ;
#23 = SURFACE_SIDE_STYLE ('',( #32 ) ) ;
#24 = VERTEX_POINT ( 'NONE', #4 ) ;
#25 =( NAMED_UNIT ( * ) PLANE_ANGLE_UNIT ( ) SI_UNIT ( $, .RADIAN. ) );
#26 = AXIS2_PLACEMENT_3D ( 'NONE', #115, #38, #39 ) ;
#27 = UNCERTAINTY_MEASURE_WITH_UNIT (LENGTH_MEASURE( 1.000000000000000082E-05 ), #66, 'distance_accuracy_value', 'NONE');
#28 = DIMENSIONAL_EXPONENTS ( 1.000000000000000000, 0.000000000000000000, 0.000000000000000000, 0.000000000000000000, 0.000000000000000000, 0.000000000000000000, 0.000000000000000000 ) ;
#29 = AXIS2_PLACEMENT_3D ( 'NONE', #133, #51, #33 ) ;
#30 = EDGE_CURVE ( 'NONE', #95, #95, #126, .T. ) ;
#31 = FACE_BOUND ( 'NONE', #141, .T. ) ;
#32 = SURFACE_STYLE_FILL_AREA ( #130 ) ;
#33 = DIRECTION ( 'NONE',  ( 0.000000000000000000, 0.000000000000000000, -1.000000000000000000 ) ) ;
#34 =( NAMED_UNIT ( * ) PLANE_ANGLE_UNIT ( ) SI_UNIT ( $, .RADIAN. ) );
#35 = PRESENTATION_STYLE_ASSIGNMENT (( #92 ) ) ;
#36 = AXIS2_PLACEMENT_3D ( 'NONE', #96, #97, #84 ) ;
#37 = ORIENTED_EDGE ( 'NONE', *, *, #30, .T. ) ;
#38 = DIRECTION ( 'NONE',  ( 0.000000000000000000, 1.000000000000000000, 0.000000000000000000 ) ) ;
#39 = DIRECTION ( 'NONE',  ( 0.000000000000000000, 0.000000000000000000, 1.000000000000000000 ) ) ;
#40 = VERTEX_POINT ( 'NONE', #121 ) ;
#41 = MECHANICAL_DESIGN_GEOMETRIC_PRESENTATION_REPRESENTATION (  '', ( #43 ), #113 ) ;
#42 = CARTESIAN_POINT ( 'NONE',  ( 0.000000000000000000, -15.00000000000000000, 0.4249999999999999889 ) ) ;
#43 = STYLED_ITEM ( 'NONE', ( #35 ), #102 ) ;
#44 = PRESENTATION_STYLE_ASSIGNMENT (( #83 ) ) ;
#45 = EDGE_LOOP ( 'NONE', ( #47 ) ) ;
#46 = ORIENTED_EDGE ( 'NONE', *, *, #60, .F. ) ;
#47 = ORIENTED_EDGE ( 'NONE', *, *, #114, .T. ) ;
#48 = CARTESIAN_POINT ( 'NONE',  ( 0.000000000000000000, -15.00000000000000000, 0.000000000000000000 ) ) ;
#49 = PLANE ( 'NONE',  #106 ) ;
#50 = CARTESIAN_POINT ( 'NONE',  ( 0.000000000000000000, -15.00000000000000000, 0.000000000000000000 ) ) ;
#51 = DIRECTION ( 'NONE',  ( -0.000000000000000000, -1.000000000000000000, -0.000000000000000000 ) ) ;
#52 =( NAMED_UNIT ( * ) SI_UNIT ( $, .STERADIAN. ) SOLID_ANGLE_UNIT ( ) );
#53 = PRODUCT ( 'am-4809 High Junction Pole', 'am-4809 High Junction Pole', '', ( #136 ) ) ;
#54 = PRODUCT_DEFINITION_CONTEXT ( 'detailed design', #90, 'design' ) ;
#55 = CYLINDRICAL_SURFACE ( 'NONE', #29, 0.4249999999999999889 ) ;
#56 = PRESENTATION_LAYER_ASSIGNMENT (  '', '', ( #43 ) ) ;
#57 = AXIS2_PLACEMENT_3D ( 'NONE', #116, #58, #17 ) ;
#58 = DIRECTION ( 'NONE',  ( 0.000000000000000000, 1.000000000000000000, 0.000000000000000000 ) ) ;
#59 = APPLICATION_CONTEXT ( 'automotive_design' ) ;
#60 = EDGE_CURVE ( 'NONE', #93, #93, #9, .T. ) ;
#61 = DIRECTION ( 'NONE',  ( 0.000000000000000000, 0.000000000000000000, 1.000000000000000000 ) ) ;
#62 = PRESENTATION_LAYER_ASSIGNMENT (  '', '', ( #15 ) ) ;
#63 =( NAMED_UNIT ( * ) PLANE_ANGLE_UNIT ( ) SI_UNIT ( $, .RADIAN. ) );
#64 = PRODUCT_DEFINITION_SHAPE ( 'NONE', 'NONE',  #139 ) ;
#65 = APPLICATION_PROTOCOL_DEFINITION ( 'draft international standard', 'automotive_design', 1998, #90 ) ;
#66 =( CONVERSION_BASED_UNIT ( 'INCH', #5 ) LENGTH_UNIT ( ) NAMED_UNIT ( #28 ) );
#67 =( GEOMETRIC_REPRESENTATION_CONTEXT ( 3 ) GLOBAL_UNCERTAINTY_ASSIGNED_CONTEXT ( ( #98 ) ) GLOBAL_UNIT_ASSIGNED_CONTEXT ( ( #2, #34, #123 ) ) REPRESENTATION_CONTEXT ( 'NONE', 'WORKASPACE' ) );
#68 = ORIENTED_EDGE ( 'NONE', *, *, #30, .F. ) ;
#69 = AXIS2_PLACEMENT_3D ( 'NONE', #48, #129, #127 ) ;
#70 = EDGE_LOOP ( 'NONE', ( #100 ) ) ;
#71 = DIRECTION ( 'NONE',  ( 0.000000000000000000, -0.000000000000000000, 1.000000000000000000 ) ) ;
#72 = DIRECTION ( 'NONE',  ( 0.000000000000000000, 1.000000000000000000, 0.000000000000000000 ) ) ;
#73 = CIRCLE ( 'NONE', #142, 0.5250000000000000222 ) ;
#74 = SURFACE_STYLE_FILL_AREA ( #137 ) ;
#75 = ADVANCED_FACE ( 'NONE', ( #128, #31 ), #118, .T. ) ;
#76 = FACE_OUTER_BOUND ( 'NONE', #88, .T. ) ;
#77 = CYLINDRICAL_SURFACE ( 'NONE', #101, 0.5250000000000000222 ) ;
#78 = FILL_AREA_STYLE_COLOUR ( '', #21 ) ;
#79 = FACE_OUTER_BOUND ( 'NONE', #91, .T. ) ;
#80 = FACE_BOUND ( 'NONE', #103, .T. ) ;
#81 = CLOSED_SHELL ( 'NONE', ( #75, #132, #8, #111 ) ) ;
#82 =( LENGTH_UNIT ( ) NAMED_UNIT ( * ) SI_UNIT ( $, .METRE. ) );
#83 = SURFACE_STYLE_USAGE ( .BOTH. , #14 ) ;
#84 = DIRECTION ( 'NONE',  ( 1.000000000000000000, 0.000000000000000000, 0.000000000000000000 ) ) ;
#85 = SHAPE_DEFINITION_REPRESENTATION ( #64, #125 ) ;
#86 = ORIENTED_EDGE ( 'NONE', *, *, #114, .F. ) ;
#87 = EDGE_LOOP ( 'NONE', ( #68 ) ) ;
#88 = EDGE_LOOP ( 'NONE', ( #46 ) ) ;
#89 = CIRCLE ( 'NONE', #19, 0.4249999999999999889 ) ;
#90 = APPLICATION_CONTEXT ( 'automotive_design' ) ;
#91 = EDGE_LOOP ( 'NONE', ( #20 ) ) ;
#92 = SURFACE_STYLE_USAGE ( .BOTH. , #23 ) ;
#93 = VERTEX_POINT ( 'NONE', #1 ) ;
#94 = PRODUCT_DEFINITION_FORMATION_WITH_SPECIFIED_SOURCE ( 'ANY', '', #53, .NOT_KNOWN. ) ;
#95 = VERTEX_POINT ( 'NONE', #42 ) ;
#96 = CARTESIAN_POINT ( 'NONE',  ( 0.000000000000000000, 0.000000000000000000, 0.000000000000000000 ) ) ;
#97 = DIRECTION ( 'NONE',  ( 0.000000000000000000, 0.000000000000000000, 1.000000000000000000 ) ) ;
#98 = UNCERTAINTY_MEASURE_WITH_UNIT (LENGTH_MEASURE( 1.000000000000000082E-05 ), #2, 'distance_accuracy_value', 'NONE');
#99 = EDGE_LOOP ( 'NONE', ( #86 ) ) ;
#100 = ORIENTED_EDGE ( 'NONE', *, *, #60, .T. ) ;
#101 = AXIS2_PLACEMENT_3D ( 'NONE', #22, #143, #18 ) ;
#102 = MANIFOLD_SOLID_BREP ( 'Boss-Extrude1', #81 ) ;
#103 = EDGE_LOOP ( 'NONE', ( #37 ) ) ;
#104 =( CONVERSION_BASED_UNIT ( 'INCH', #131 ) LENGTH_UNIT ( ) NAMED_UNIT ( #16 ) );
#105 = PRODUCT_RELATED_PRODUCT_CATEGORY ( 'part', '', ( #53 ) ) ;
#106 = AXIS2_PLACEMENT_3D ( 'NONE', #50, #10, #71 ) ;
#107 = FACE_OUTER_BOUND ( 'NONE', #87, .T. ) ;
#108 = CARTESIAN_POINT ( 'NONE',  ( 0.000000000000000000, 15.00000000000000000, 0.000000000000000000 ) ) ;
#109 = APPLICATION_PROTOCOL_DEFINITION ( 'draft international standard', 'automotive_design', 1998, #59 ) ;
#110 = DIRECTION ( 'NONE',  ( 0.000000000000000000, 0.000000000000000000, 1.000000000000000000 ) ) ;
#111 = ADVANCED_FACE ( 'NONE', ( #79, #107 ), #55, .F. ) ;
#112 = FILL_AREA_STYLE_COLOUR ( '', #119 ) ;
#113 =( GEOMETRIC_REPRESENTATION_CONTEXT ( 3 ) GLOBAL_UNCERTAINTY_ASSIGNED_CONTEXT ( ( #135 ) ) GLOBAL_UNIT_ASSIGNED_CONTEXT ( ( #104, #63, #3 ) ) REPRESENTATION_CONTEXT ( 'NONE', 'WORKASPACE' ) );
#114 = EDGE_CURVE ( 'NONE', #40, #40, #73, .T. ) ;
#115 = CARTESIAN_POINT ( 'NONE',  ( 0.000000000000000000, 15.00000000000000000, 0.000000000000000000 ) ) ;
#116 = CARTESIAN_POINT ( 'NONE',  ( 0.000000000000000000, 15.00000000000000000, 0.000000000000000000 ) ) ;
#117 = EDGE_CURVE ( 'NONE', #24, #24, #89, .T. ) ;
#118 = PLANE ( 'NONE',  #57 ) ;
#119 = COLOUR_RGB ( '',0.9019607843137255054, 0.6980392156862744724, 0.1333333333333333315 ) ;
#120 = CARTESIAN_POINT ( 'NONE',  ( 0.000000000000000000, -15.00000000000000000, 0.000000000000000000 ) ) ;
#121 = CARTESIAN_POINT ( 'NONE',  ( 0.000000000000000000, -15.00000000000000000, 0.5250000000000000222 ) ) ;
#122 =( GEOMETRIC_REPRESENTATION_CONTEXT ( 3 ) GLOBAL_UNCERTAINTY_ASSIGNED_CONTEXT ( ( #27 ) ) GLOBAL_UNIT_ASSIGNED_CONTEXT ( ( #66, #25, #52 ) ) REPRESENTATION_CONTEXT ( 'NONE', 'WORKASPACE' ) );
#123 =( NAMED_UNIT ( * ) SI_UNIT ( $, .STERADIAN. ) SOLID_ANGLE_UNIT ( ) );
#124 = FACE_OUTER_BOUND ( 'NONE', #99, .T. ) ;
#125 = ADVANCED_BREP_SHAPE_REPRESENTATION ( 'am-4809 High Junction Pole', ( #102, #36 ), #67 ) ;
#126 = CIRCLE ( 'NONE', #69, 0.4249999999999999889 ) ;
#127 = DIRECTION ( 'NONE',  ( 0.000000000000000000, 0.000000000000000000, 1.000000000000000000 ) ) ;
#128 = FACE_OUTER_BOUND ( 'NONE', #70, .T. ) ;
#129 = DIRECTION ( 'NONE',  ( 0.000000000000000000, 1.000000000000000000, 0.000000000000000000 ) ) ;
#130 = FILL_AREA_STYLE ('',( #78 ) ) ;
#131 = LENGTH_MEASURE_WITH_UNIT ( LENGTH_MEASURE( 0.02539999999999999897 ), #12 );
#132 = ADVANCED_FACE ( 'NONE', ( #124, #80 ), #49, .F. ) ;
#133 = CARTESIAN_POINT ( 'NONE',  ( 0.000000000000000000, 15.00000000000000000, 0.000000000000000000 ) ) ;
#134 = LENGTH_MEASURE_WITH_UNIT ( LENGTH_MEASURE( 0.02539999999999999897 ), #82 );
#135 = UNCERTAINTY_MEASURE_WITH_UNIT (LENGTH_MEASURE( 1.000000000000000082E-05 ), #104, 'distance_accuracy_value', 'NONE');
#136 = PRODUCT_CONTEXT ( 'NONE', #59, 'mechanical' ) ;
#137 = FILL_AREA_STYLE ('',( #112 ) ) ;
#138 =( LENGTH_UNIT ( ) NAMED_UNIT ( * ) SI_UNIT ( $, .METRE. ) );
#139 = PRODUCT_DEFINITION ( 'UNKNOWN', '', #94, #54 ) ;
#140 = FACE_OUTER_BOUND ( 'NONE', #45, .T. ) ;
#141 = EDGE_LOOP ( 'NONE', ( #7 ) ) ;
#142 = AXIS2_PLACEMENT_3D ( 'NONE', #120, #72, #61 ) ;
#143 = DIRECTION ( 'NONE',  ( -0.000000000000000000, -1.000000000000000000, -0.000000000000000000 ) ) ;
ENDSEC;
END-ISO-10303-21;
