ISO-10303-21;
HEADER;
FILE_DESCRIPTION (( 'STEP AP214' ),
    '1' );
FILE_NAME ('am-4808 Medium Junction Pole.STEP',
    '2022-09-02T19:09:41',
    ( '' ),
    ( '' ),
    'SwSTEP 2.0',
    'SolidWorks 2022',
    '' );
FILE_SCHEMA (( 'AUTOMOTIVE_DESIGN' ));
ENDSEC;

DATA;
#1 =( NAMED_UNIT ( * ) SI_UNIT ( $, .STERADIAN. ) SOLID_ANGLE_UNIT ( ) );
#2 = CIRCLE ( 'NONE', #86, 0.5250000000000000222 ) ;
#3 = ORIENTED_EDGE ( 'NONE', *, *, #57, .T. ) ;
#4 = ADVANCED_FACE ( 'NONE', ( #128, #29 ), #94, .F. ) ;
#5 = DIRECTION ( 'NONE',  ( 0.000000000000000000, 0.000000000000000000, -1.000000000000000000 ) ) ;
#6 = DIRECTION ( 'NONE',  ( 0.000000000000000000, 1.000000000000000000, 0.000000000000000000 ) ) ;
#7 = CARTESIAN_POINT ( 'NONE',  ( 0.000000000000000000, 10.00000000000000000, 0.000000000000000000 ) ) ;
#8 = VERTEX_POINT ( 'NONE', #109 ) ;
#9 = DIRECTION ( 'NONE',  ( 0.000000000000000000, 0.000000000000000000, 1.000000000000000000 ) ) ;
#10 = EDGE_LOOP ( 'NONE', ( #137 ) ) ;
#11 = EDGE_LOOP ( 'NONE', ( #3 ) ) ;
#12 = UNCERTAINTY_MEASURE_WITH_UNIT (LENGTH_MEASURE( 1.000000000000000082E-05 ), #35, 'distance_accuracy_value', 'NONE');
#13 = ORIENTED_EDGE ( 'NONE', *, *, #37, .T. ) ;
#14 = EDGE_LOOP ( 'NONE', ( #105 ) ) ;
#15 = FACE_OUTER_BOUND ( 'NONE', #73, .T. ) ;
#16 = AXIS2_PLACEMENT_3D ( 'NONE', #113, #60, #26 ) ;
#17 = MECHANICAL_DESIGN_GEOMETRIC_PRESENTATION_REPRESENTATION (  '', ( #74 ), #56 ) ;
#18 = CARTESIAN_POINT ( 'NONE',  ( 0.000000000000000000, 10.00000000000000000, 0.000000000000000000 ) ) ;
#19 = APPLICATION_CONTEXT ( 'automotive_design' ) ;
#20 = PRESENTATION_STYLE_ASSIGNMENT (( #42 ) ) ;
#21 = FILL_AREA_STYLE ('',( #89 ) ) ;
#22 = AXIS2_PLACEMENT_3D ( 'NONE', #69, #127, #116 ) ;
#23 = DIRECTION ( 'NONE',  ( 0.000000000000000000, 1.000000000000000000, 0.000000000000000000 ) ) ;
#24 =( GEOMETRIC_REPRESENTATION_CONTEXT ( 3 ) GLOBAL_UNCERTAINTY_ASSIGNED_CONTEXT ( ( #27 ) ) GLOBAL_UNIT_ASSIGNED_CONTEXT ( ( #62, #102, #112 ) ) REPRESENTATION_CONTEXT ( 'NONE', 'WORKASPACE' ) );
#25 = EDGE_CURVE ( 'NONE', #51, #51, #126, .T. ) ;
#26 = DIRECTION ( 'NONE',  ( 0.000000000000000000, 0.000000000000000000, 1.000000000000000000 ) ) ;
#27 = UNCERTAINTY_MEASURE_WITH_UNIT (LENGTH_MEASURE( 1.000000000000000082E-05 ), #62, 'distance_accuracy_value', 'NONE');
#28 = DIMENSIONAL_EXPONENTS ( 1.000000000000000000, 0.000000000000000000, 0.000000000000000000, 0.000000000000000000, 0.000000000000000000, 0.000000000000000000, 0.000000000000000000 ) ;
#29 = FACE_OUTER_BOUND ( 'NONE', #10, .T. ) ;
#30 = LENGTH_MEASURE_WITH_UNIT ( LENGTH_MEASURE( 0.02539999999999999897 ), #53 );
#31 = AXIS2_PLACEMENT_3D ( 'NONE', #7, #140, #5 ) ;
#32 = CARTESIAN_POINT ( 'NONE',  ( 0.000000000000000000, 10.00000000000000000, 0.5250000000000000222 ) ) ;
#33 =( NAMED_UNIT ( * ) SI_UNIT ( $, .STERADIAN. ) SOLID_ANGLE_UNIT ( ) );
#34 = MANIFOLD_SOLID_BREP ( 'Boss-Extrude1', #85 ) ;
#35 =( CONVERSION_BASED_UNIT ( 'INCH', #133 ) LENGTH_UNIT ( ) NAMED_UNIT ( #40 ) );
#36 = APPLICATION_PROTOCOL_DEFINITION ( 'draft international standard', 'automotive_design', 1998, #79 ) ;
#37 = EDGE_CURVE ( 'NONE', #43, #43, #101, .T. ) ;
#38 = AXIS2_PLACEMENT_3D ( 'NONE', #18, #67, #78 ) ;
#39 = EDGE_LOOP ( 'NONE', ( #71 ) ) ;
#40 = DIMENSIONAL_EXPONENTS ( 1.000000000000000000, 0.000000000000000000, 0.000000000000000000, 0.000000000000000000, 0.000000000000000000, 0.000000000000000000, 0.000000000000000000 ) ;
#41 =( NAMED_UNIT ( * ) PLANE_ANGLE_UNIT ( ) SI_UNIT ( $, .RADIAN. ) );
#42 = SURFACE_STYLE_USAGE ( .BOTH. , #90 ) ;
#43 = VERTEX_POINT ( 'NONE', #32 ) ;
#44 = SHAPE_DEFINITION_REPRESENTATION ( #142, #66 ) ;
#45 = SURFACE_SIDE_STYLE ('',( #91 ) ) ;
#46 = PRODUCT_DEFINITION ( 'UNKNOWN', '', #104, #70 ) ;
#47 = ORIENTED_EDGE ( 'NONE', *, *, #37, .F. ) ;
#48 = DIMENSIONAL_EXPONENTS ( 1.000000000000000000, 0.000000000000000000, 0.000000000000000000, 0.000000000000000000, 0.000000000000000000, 0.000000000000000000, 0.000000000000000000 ) ;
#49 = DIRECTION ( 'NONE',  ( 0.000000000000000000, -0.000000000000000000, 1.000000000000000000 ) ) ;
#50 = ADVANCED_FACE ( 'NONE', ( #15, #87 ), #65, .F. ) ;
#51 = VERTEX_POINT ( 'NONE', #88 ) ;
#52 = FACE_BOUND ( 'NONE', #14, .T. ) ;
#53 =( LENGTH_UNIT ( ) NAMED_UNIT ( * ) SI_UNIT ( $, .METRE. ) );
#54 = PRESENTATION_STYLE_ASSIGNMENT (( #143 ) ) ;
#55 = AXIS2_PLACEMENT_3D ( 'NONE', #98, #129, #49 ) ;
#56 =( GEOMETRIC_REPRESENTATION_CONTEXT ( 3 ) GLOBAL_UNCERTAINTY_ASSIGNED_CONTEXT ( ( #12 ) ) GLOBAL_UNIT_ASSIGNED_CONTEXT ( ( #35, #134, #1 ) ) REPRESENTATION_CONTEXT ( 'NONE', 'WORKASPACE' ) );
#57 = EDGE_CURVE ( 'NONE', #107, #107, #136, .T. ) ;
#58 = PRODUCT_CONTEXT ( 'NONE', #79, 'mechanical' ) ;
#59 = PRESENTATION_LAYER_ASSIGNMENT (  '', '', ( #103 ) ) ;
#60 = DIRECTION ( 'NONE',  ( 0.000000000000000000, 1.000000000000000000, 0.000000000000000000 ) ) ;
#61 = COLOUR_RGB ( '',0.9019607843137255054, 0.6980392156862744724, 0.1333333333333333315 ) ;
#62 =( CONVERSION_BASED_UNIT ( 'INCH', #30 ) LENGTH_UNIT ( ) NAMED_UNIT ( #28 ) );
#63 =( GEOMETRIC_REPRESENTATION_CONTEXT ( 3 ) GLOBAL_UNCERTAINTY_ASSIGNED_CONTEXT ( ( #93 ) ) GLOBAL_UNIT_ASSIGNED_CONTEXT ( ( #139, #41, #33 ) ) REPRESENTATION_CONTEXT ( 'NONE', 'WORKASPACE' ) );
#64 = FACE_OUTER_BOUND ( 'NONE', #106, .T. ) ;
#65 = PLANE ( 'NONE',  #55 ) ;
#66 = ADVANCED_BREP_SHAPE_REPRESENTATION ( 'am-4808 Medium Junction Pole', ( #34, #123 ), #24 ) ;
#67 = DIRECTION ( 'NONE',  ( 0.000000000000000000, 1.000000000000000000, 0.000000000000000000 ) ) ;
#68 = CARTESIAN_POINT ( 'NONE',  ( 0.000000000000000000, 0.000000000000000000, 0.000000000000000000 ) ) ;
#69 = CARTESIAN_POINT ( 'NONE',  ( 0.000000000000000000, 10.00000000000000000, 0.000000000000000000 ) ) ;
#70 = PRODUCT_DEFINITION_CONTEXT ( 'detailed design', #19, 'design' ) ;
#71 = ORIENTED_EDGE ( 'NONE', *, *, #25, .T. ) ;
#72 = CARTESIAN_POINT ( 'NONE',  ( 0.000000000000000000, 10.00000000000000000, 0.000000000000000000 ) ) ;
#73 = EDGE_LOOP ( 'NONE', ( #125 ) ) ;
#74 = STYLED_ITEM ( 'NONE', ( #54 ), #66 ) ;
#75 = EDGE_LOOP ( 'NONE', ( #13 ) ) ;
#76 = DIRECTION ( 'NONE',  ( 0.000000000000000000, 0.000000000000000000, 1.000000000000000000 ) ) ;
#77 = AXIS2_PLACEMENT_3D ( 'NONE', #117, #6, #76 ) ;
#78 = DIRECTION ( 'NONE',  ( 0.000000000000000000, -0.000000000000000000, 1.000000000000000000 ) ) ;
#79 = APPLICATION_CONTEXT ( 'automotive_design' ) ;
#80 = CARTESIAN_POINT ( 'NONE',  ( 0.000000000000000000, -10.00000000000000000, 0.4249999999999999889 ) ) ;
#81 = EDGE_CURVE ( 'NONE', #8, #8, #2, .T. ) ;
#82 = FILL_AREA_STYLE ('',( #135 ) ) ;
#83 = COLOUR_RGB ( '',0.9019607843137255054, 0.6980392156862744724, 0.1333333333333333315 ) ;
#84 = ORIENTED_EDGE ( 'NONE', *, *, #81, .T. ) ;
#85 = CLOSED_SHELL ( 'NONE', ( #99, #50, #138, #4 ) ) ;
#86 = AXIS2_PLACEMENT_3D ( 'NONE', #97, #23, #119 ) ;
#87 = FACE_BOUND ( 'NONE', #11, .T. ) ;
#88 = CARTESIAN_POINT ( 'NONE',  ( 0.000000000000000000, 10.00000000000000000, 0.4249999999999999889 ) ) ;
#89 = FILL_AREA_STYLE_COLOUR ( '', #61 ) ;
#90 = SURFACE_SIDE_STYLE ('',( #120 ) ) ;
#91 = SURFACE_STYLE_FILL_AREA ( #82 ) ;
#92 = DIRECTION ( 'NONE',  ( 1.000000000000000000, 0.000000000000000000, 0.000000000000000000 ) ) ;
#93 = UNCERTAINTY_MEASURE_WITH_UNIT (LENGTH_MEASURE( 1.000000000000000082E-05 ), #139, 'distance_accuracy_value', 'NONE');
#94 = CYLINDRICAL_SURFACE ( 'NONE', #22, 0.4249999999999999889 ) ;
#95 = EDGE_LOOP ( 'NONE', ( #84 ) ) ;
#96 = PRESENTATION_LAYER_ASSIGNMENT (  '', '', ( #74 ) ) ;
#97 = CARTESIAN_POINT ( 'NONE',  ( 0.000000000000000000, -10.00000000000000000, 0.000000000000000000 ) ) ;
#98 = CARTESIAN_POINT ( 'NONE',  ( 0.000000000000000000, -10.00000000000000000, 0.000000000000000000 ) ) ;
#99 = ADVANCED_FACE ( 'NONE', ( #111, #52 ), #121, .T. ) ;
#100 =( LENGTH_UNIT ( ) NAMED_UNIT ( * ) SI_UNIT ( $, .METRE. ) );
#101 = CIRCLE ( 'NONE', #118, 0.5250000000000000222 ) ;
#102 =( NAMED_UNIT ( * ) PLANE_ANGLE_UNIT ( ) SI_UNIT ( $, .RADIAN. ) );
#103 = STYLED_ITEM ( 'NONE', ( #20 ), #34 ) ;
#104 = PRODUCT_DEFINITION_FORMATION_WITH_SPECIFIED_SOURCE ( 'ANY', '', #124, .NOT_KNOWN. ) ;
#105 = ORIENTED_EDGE ( 'NONE', *, *, #25, .F. ) ;
#106 = EDGE_LOOP ( 'NONE', ( #47 ) ) ;
#107 = VERTEX_POINT ( 'NONE', #80 ) ;
#108 = CYLINDRICAL_SURFACE ( 'NONE', #31, 0.5250000000000000222 ) ;
#109 = CARTESIAN_POINT ( 'NONE',  ( 0.000000000000000000, -10.00000000000000000, 0.5250000000000000222 ) ) ;
#110 = FACE_OUTER_BOUND ( 'NONE', #95, .T. ) ;
#111 = FACE_OUTER_BOUND ( 'NONE', #75, .T. ) ;
#112 =( NAMED_UNIT ( * ) SI_UNIT ( $, .STERADIAN. ) SOLID_ANGLE_UNIT ( ) );
#113 = CARTESIAN_POINT ( 'NONE',  ( 0.000000000000000000, 10.00000000000000000, 0.000000000000000000 ) ) ;
#114 = MECHANICAL_DESIGN_GEOMETRIC_PRESENTATION_REPRESENTATION (  '', ( #103 ), #63 ) ;
#115 = PRODUCT_RELATED_PRODUCT_CATEGORY ( 'part', '', ( #124 ) ) ;
#116 = DIRECTION ( 'NONE',  ( 0.000000000000000000, 0.000000000000000000, -1.000000000000000000 ) ) ;
#117 = CARTESIAN_POINT ( 'NONE',  ( 0.000000000000000000, -10.00000000000000000, 0.000000000000000000 ) ) ;
#118 = AXIS2_PLACEMENT_3D ( 'NONE', #72, #132, #122 ) ;
#119 = DIRECTION ( 'NONE',  ( 0.000000000000000000, 0.000000000000000000, 1.000000000000000000 ) ) ;
#120 = SURFACE_STYLE_FILL_AREA ( #21 ) ;
#121 = PLANE ( 'NONE',  #38 ) ;
#122 = DIRECTION ( 'NONE',  ( 0.000000000000000000, 0.000000000000000000, 1.000000000000000000 ) ) ;
#123 = AXIS2_PLACEMENT_3D ( 'NONE', #68, #9, #92 ) ;
#124 = PRODUCT ( 'am-4808 Medium Junction Pole', 'am-4808 Medium Junction Pole', '', ( #58 ) ) ;
#125 = ORIENTED_EDGE ( 'NONE', *, *, #81, .F. ) ;
#126 = CIRCLE ( 'NONE', #16, 0.4249999999999999889 ) ;
#127 = DIRECTION ( 'NONE',  ( -0.000000000000000000, -1.000000000000000000, -0.000000000000000000 ) ) ;
#128 = FACE_OUTER_BOUND ( 'NONE', #39, .T. ) ;
#129 = DIRECTION ( 'NONE',  ( 0.000000000000000000, 1.000000000000000000, 0.000000000000000000 ) ) ;
#130 = LENGTH_MEASURE_WITH_UNIT ( LENGTH_MEASURE( 0.02539999999999999897 ), #131 );
#131 =( LENGTH_UNIT ( ) NAMED_UNIT ( * ) SI_UNIT ( $, .METRE. ) );
#132 = DIRECTION ( 'NONE',  ( 0.000000000000000000, 1.000000000000000000, 0.000000000000000000 ) ) ;
#133 = LENGTH_MEASURE_WITH_UNIT ( LENGTH_MEASURE( 0.02539999999999999897 ), #100 );
#134 =( NAMED_UNIT ( * ) PLANE_ANGLE_UNIT ( ) SI_UNIT ( $, .RADIAN. ) );
#135 = FILL_AREA_STYLE_COLOUR ( '', #83 ) ;
#136 = CIRCLE ( 'NONE', #77, 0.4249999999999999889 ) ;
#137 = ORIENTED_EDGE ( 'NONE', *, *, #57, .F. ) ;
#138 = ADVANCED_FACE ( 'NONE', ( #64, #110 ), #108, .T. ) ;
#139 =( CONVERSION_BASED_UNIT ( 'INCH', #130 ) LENGTH_UNIT ( ) NAMED_UNIT ( #48 ) );
#140 = DIRECTION ( 'NONE',  ( -0.000000000000000000, -1.000000000000000000, -0.000000000000000000 ) ) ;
#141 = APPLICATION_PROTOCOL_DEFINITION ( 'draft international standard', 'automotive_design', 1998, #19 ) ;
#142 = PRODUCT_DEFINITION_SHAPE ( 'NONE', 'NONE',  #46 ) ;
#143 = SURFACE_STYLE_USAGE ( .BOTH. , #45 ) ;
ENDSEC;
END-ISO-10303-21;
