ISO-10303-21;
HEADER;
FILE_DESCRIPTION (( 'STEP AP214' ),
    '1' );
FILE_NAME ('am-4807 Low Junction Pole.STEP',
    '2022-09-02T19:08:41',
    ( '' ),
    ( '' ),
    'SwSTEP 2.0',
    'SolidWorks 2022',
    '' );
FILE_SCHEMA (( 'AUTOMOTIVE_DESIGN' ));
ENDSEC;

DATA;
#1 =( NAMED_UNIT ( * ) SI_UNIT ( $, .STERADIAN. ) SOLID_ANGLE_UNIT ( ) );
#2 =( LENGTH_UNIT ( ) NAMED_UNIT ( * ) SI_UNIT ( $, .METRE. ) );
#3 = FACE_OUTER_BOUND ( 'NONE', #128, .T. ) ;
#4 = DIMENSIONAL_EXPONENTS ( 1.000000000000000000, 0.000000000000000000, 0.000000000000000000, 0.000000000000000000, 0.000000000000000000, 0.000000000000000000, 0.000000000000000000 ) ;
#5 = FILL_AREA_STYLE ('',( #103 ) ) ;
#6 = AXIS2_PLACEMENT_3D ( 'NONE', #32, #55, #98 ) ;
#7 =( CONVERSION_BASED_UNIT ( 'INCH', #52 ) LENGTH_UNIT ( ) NAMED_UNIT ( #4 ) );
#8 = DIRECTION ( 'NONE',  ( 1.000000000000000000, 0.000000000000000000, 0.000000000000000000 ) ) ;
#9 = AXIS2_PLACEMENT_3D ( 'NONE', #24, #71, #17 ) ;
#10 = UNCERTAINTY_MEASURE_WITH_UNIT (LENGTH_MEASURE( 1.000000000000000082E-05 ), #102, 'distance_accuracy_value', 'NONE');
#11 = DIRECTION ( 'NONE',  ( -0.000000000000000000, -1.000000000000000000, -0.000000000000000000 ) ) ;
#12 = EDGE_LOOP ( 'NONE', ( #115 ) ) ;
#13 = CARTESIAN_POINT ( 'NONE',  ( 0.000000000000000000, -5.000000000000000000, 0.000000000000000000 ) ) ;
#14 = DIRECTION ( 'NONE',  ( 0.000000000000000000, 0.000000000000000000, 1.000000000000000000 ) ) ;
#15 = ADVANCED_BREP_SHAPE_REPRESENTATION ( 'am-4807 Low Junction Pole', ( #138, #53 ), #123 ) ;
#16 = CARTESIAN_POINT ( 'NONE',  ( 0.000000000000000000, -5.000000000000000000, 0.4249999999999999889 ) ) ;
#17 = DIRECTION ( 'NONE',  ( 0.000000000000000000, -0.000000000000000000, 1.000000000000000000 ) ) ;
#18 = FACE_OUTER_BOUND ( 'NONE', #33, .T. ) ;
#19 = PRODUCT_DEFINITION_SHAPE ( 'NONE', 'NONE',  #100 ) ;
#20 = AXIS2_PLACEMENT_3D ( 'NONE', #58, #105, #80 ) ;
#21 = ORIENTED_EDGE ( 'NONE', *, *, #46, .F. ) ;
#22 = ADVANCED_FACE ( 'NONE', ( #136, #143 ), #117, .T. ) ;
#23 = COLOUR_RGB ( '',0.9019607843137255054, 0.6980392156862744724, 0.1333333333333333315 ) ;
#24 = CARTESIAN_POINT ( 'NONE',  ( 0.000000000000000000, -5.000000000000000000, 0.000000000000000000 ) ) ;
#25 = FACE_OUTER_BOUND ( 'NONE', #142, .T. ) ;
#26 =( NAMED_UNIT ( * ) PLANE_ANGLE_UNIT ( ) SI_UNIT ( $, .RADIAN. ) );
#27 = CIRCLE ( 'NONE', #107, 0.4249999999999999889 ) ;
#28 = PLANE ( 'NONE',  #9 ) ;
#29 = SURFACE_STYLE_USAGE ( .BOTH. , #69 ) ;
#30 = VERTEX_POINT ( 'NONE', #140 ) ;
#31 = APPLICATION_PROTOCOL_DEFINITION ( 'draft international standard', 'automotive_design', 1998, #39 ) ;
#32 = CARTESIAN_POINT ( 'NONE',  ( 0.000000000000000000, -5.000000000000000000, 0.000000000000000000 ) ) ;
#33 = EDGE_LOOP ( 'NONE', ( #35 ) ) ;
#34 = PRESENTATION_LAYER_ASSIGNMENT (  '', '', ( #137 ) ) ;
#35 = ORIENTED_EDGE ( 'NONE', *, *, #132, .T. ) ;
#36 = DIRECTION ( 'NONE',  ( 0.000000000000000000, 0.000000000000000000, -1.000000000000000000 ) ) ;
#37 = MECHANICAL_DESIGN_GEOMETRIC_PRESENTATION_REPRESENTATION (  '', ( #111 ), #112 ) ;
#38 = FACE_BOUND ( 'NONE', #88, .T. ) ;
#39 = APPLICATION_CONTEXT ( 'automotive_design' ) ;
#40 = FILL_AREA_STYLE_COLOUR ( '', #89 ) ;
#41 = LENGTH_MEASURE_WITH_UNIT ( LENGTH_MEASURE( 0.02539999999999999897 ), #113 );
#42 = AXIS2_PLACEMENT_3D ( 'NONE', #56, #11, #99 ) ;
#43 = ORIENTED_EDGE ( 'NONE', *, *, #132, .F. ) ;
#44 = ORIENTED_EDGE ( 'NONE', *, *, #79, .T. ) ;
#45 = PRESENTATION_LAYER_ASSIGNMENT (  '', '', ( #111 ) ) ;
#46 = EDGE_CURVE ( 'NONE', #50, #50, #68, .T. ) ;
#47 = FACE_OUTER_BOUND ( 'NONE', #78, .T. ) ;
#48 = EDGE_CURVE ( 'NONE', #70, #70, #95, .T. ) ;
#49 = DIRECTION ( 'NONE',  ( 0.000000000000000000, 1.000000000000000000, 0.000000000000000000 ) ) ;
#50 = VERTEX_POINT ( 'NONE', #122 ) ;
#51 =( NAMED_UNIT ( * ) PLANE_ANGLE_UNIT ( ) SI_UNIT ( $, .RADIAN. ) );
#52 = LENGTH_MEASURE_WITH_UNIT ( LENGTH_MEASURE( 0.02539999999999999897 ), #125 );
#53 = AXIS2_PLACEMENT_3D ( 'NONE', #75, #63, #8 ) ;
#54 = PRODUCT_CONTEXT ( 'NONE', #39, 'mechanical' ) ;
#55 = DIRECTION ( 'NONE',  ( 0.000000000000000000, 1.000000000000000000, 0.000000000000000000 ) ) ;
#56 = CARTESIAN_POINT ( 'NONE',  ( 0.000000000000000000, 5.000000000000000000, 0.000000000000000000 ) ) ;
#57 = AXIS2_PLACEMENT_3D ( 'NONE', #13, #119, #90 ) ;
#58 = CARTESIAN_POINT ( 'NONE',  ( 0.000000000000000000, 5.000000000000000000, 0.000000000000000000 ) ) ;
#59 = CARTESIAN_POINT ( 'NONE',  ( 0.000000000000000000, 5.000000000000000000, 0.000000000000000000 ) ) ;
#60 = FACE_BOUND ( 'NONE', #12, .T. ) ;
#61 = MECHANICAL_DESIGN_GEOMETRIC_PRESENTATION_REPRESENTATION (  '', ( #137 ), #141 ) ;
#62 = CARTESIAN_POINT ( 'NONE',  ( 0.000000000000000000, 5.000000000000000000, 0.5250000000000000222 ) ) ;
#63 = DIRECTION ( 'NONE',  ( 0.000000000000000000, 0.000000000000000000, 1.000000000000000000 ) ) ;
#64 = ADVANCED_FACE ( 'NONE', ( #3, #38 ), #28, .F. ) ;
#65 = CIRCLE ( 'NONE', #87, 0.5250000000000000222 ) ;
#66 = DIMENSIONAL_EXPONENTS ( 1.000000000000000000, 0.000000000000000000, 0.000000000000000000, 0.000000000000000000, 0.000000000000000000, 0.000000000000000000, 0.000000000000000000 ) ;
#67 = EDGE_LOOP ( 'NONE', ( #43 ) ) ;
#68 = CIRCLE ( 'NONE', #57, 0.5250000000000000222 ) ;
#69 = SURFACE_SIDE_STYLE ('',( #82 ) ) ;
#70 = VERTEX_POINT ( 'NONE', #16 ) ;
#71 = DIRECTION ( 'NONE',  ( 0.000000000000000000, 1.000000000000000000, 0.000000000000000000 ) ) ;
#72 = CYLINDRICAL_SURFACE ( 'NONE', #92, 0.4249999999999999889 ) ;
#73 = APPLICATION_CONTEXT ( 'automotive_design' ) ;
#74 = SURFACE_SIDE_STYLE ('',( #133 ) ) ;
#75 = CARTESIAN_POINT ( 'NONE',  ( 0.000000000000000000, 0.000000000000000000, 0.000000000000000000 ) ) ;
#76 = APPLICATION_PROTOCOL_DEFINITION ( 'draft international standard', 'automotive_design', 1998, #73 ) ;
#77 = EDGE_LOOP ( 'NONE', ( #116 ) ) ;
#78 = EDGE_LOOP ( 'NONE', ( #44 ) ) ;
#79 = EDGE_CURVE ( 'NONE', #30, #30, #27, .T. ) ;
#80 = DIRECTION ( 'NONE',  ( 0.000000000000000000, -0.000000000000000000, 1.000000000000000000 ) ) ;
#81 = CARTESIAN_POINT ( 'NONE',  ( 0.000000000000000000, 5.000000000000000000, 0.000000000000000000 ) ) ;
#82 = SURFACE_STYLE_FILL_AREA ( #5 ) ;
#83 = DIRECTION ( 'NONE',  ( -0.000000000000000000, -1.000000000000000000, -0.000000000000000000 ) ) ;
#84 = UNCERTAINTY_MEASURE_WITH_UNIT (LENGTH_MEASURE( 1.000000000000000082E-05 ), #97, 'distance_accuracy_value', 'NONE');
#85 = PRESENTATION_STYLE_ASSIGNMENT (( #86 ) ) ;
#86 = SURFACE_STYLE_USAGE ( .BOTH. , #74 ) ;
#87 = AXIS2_PLACEMENT_3D ( 'NONE', #106, #91, #14 ) ;
#88 = EDGE_LOOP ( 'NONE', ( #101 ) ) ;
#89 = COLOUR_RGB ( '',0.9019607843137255054, 0.6980392156862744724, 0.1333333333333333315 ) ;
#90 = DIRECTION ( 'NONE',  ( 0.000000000000000000, 0.000000000000000000, 1.000000000000000000 ) ) ;
#91 = DIRECTION ( 'NONE',  ( 0.000000000000000000, 1.000000000000000000, 0.000000000000000000 ) ) ;
#92 = AXIS2_PLACEMENT_3D ( 'NONE', #59, #83, #36 ) ;
#93 =( NAMED_UNIT ( * ) SI_UNIT ( $, .STERADIAN. ) SOLID_ANGLE_UNIT ( ) );
#94 = SHAPE_DEFINITION_REPRESENTATION ( #19, #15 ) ;
#95 = CIRCLE ( 'NONE', #6, 0.4249999999999999889 ) ;
#96 = ADVANCED_FACE ( 'NONE', ( #47, #25 ), #72, .F. ) ;
#97 =( CONVERSION_BASED_UNIT ( 'INCH', #41 ) LENGTH_UNIT ( ) NAMED_UNIT ( #126 ) );
#98 = DIRECTION ( 'NONE',  ( 0.000000000000000000, 0.000000000000000000, 1.000000000000000000 ) ) ;
#99 = DIRECTION ( 'NONE',  ( 0.000000000000000000, 0.000000000000000000, -1.000000000000000000 ) ) ;
#100 = PRODUCT_DEFINITION ( 'UNKNOWN', '', #109, #124 ) ;
#101 = ORIENTED_EDGE ( 'NONE', *, *, #48, .T. ) ;
#102 =( CONVERSION_BASED_UNIT ( 'INCH', #120 ) LENGTH_UNIT ( ) NAMED_UNIT ( #66 ) );
#103 = FILL_AREA_STYLE_COLOUR ( '', #23 ) ;
#104 = UNCERTAINTY_MEASURE_WITH_UNIT (LENGTH_MEASURE( 1.000000000000000082E-05 ), #7, 'distance_accuracy_value', 'NONE');
#105 = DIRECTION ( 'NONE',  ( 0.000000000000000000, 1.000000000000000000, 0.000000000000000000 ) ) ;
#106 = CARTESIAN_POINT ( 'NONE',  ( 0.000000000000000000, 5.000000000000000000, 0.000000000000000000 ) ) ;
#107 = AXIS2_PLACEMENT_3D ( 'NONE', #81, #49, #130 ) ;
#108 =( NAMED_UNIT ( * ) PLANE_ANGLE_UNIT ( ) SI_UNIT ( $, .RADIAN. ) );
#109 = PRODUCT_DEFINITION_FORMATION_WITH_SPECIFIED_SOURCE ( 'ANY', '', #110, .NOT_KNOWN. ) ;
#110 = PRODUCT ( 'am-4807 Low Junction Pole', 'am-4807 Low Junction Pole', '', ( #54 ) ) ;
#111 = STYLED_ITEM ( 'NONE', ( #85 ), #15 ) ;
#112 =( GEOMETRIC_REPRESENTATION_CONTEXT ( 3 ) GLOBAL_UNCERTAINTY_ASSIGNED_CONTEXT ( ( #104 ) ) GLOBAL_UNIT_ASSIGNED_CONTEXT ( ( #7, #108, #93 ) ) REPRESENTATION_CONTEXT ( 'NONE', 'WORKASPACE' ) );
#113 =( LENGTH_UNIT ( ) NAMED_UNIT ( * ) SI_UNIT ( $, .METRE. ) );
#114 = PRODUCT_RELATED_PRODUCT_CATEGORY ( 'part', '', ( #110 ) ) ;
#115 = ORIENTED_EDGE ( 'NONE', *, *, #79, .F. ) ;
#116 = ORIENTED_EDGE ( 'NONE', *, *, #46, .T. ) ;
#117 = CYLINDRICAL_SURFACE ( 'NONE', #42, 0.5250000000000000222 ) ;
#118 = ADVANCED_FACE ( 'NONE', ( #18, #60 ), #131, .T. ) ;
#119 = DIRECTION ( 'NONE',  ( 0.000000000000000000, 1.000000000000000000, 0.000000000000000000 ) ) ;
#120 = LENGTH_MEASURE_WITH_UNIT ( LENGTH_MEASURE( 0.02539999999999999897 ), #2 );
#121 = PRESENTATION_STYLE_ASSIGNMENT (( #29 ) ) ;
#122 = CARTESIAN_POINT ( 'NONE',  ( 0.000000000000000000, -5.000000000000000000, 0.5250000000000000222 ) ) ;
#123 =( GEOMETRIC_REPRESENTATION_CONTEXT ( 3 ) GLOBAL_UNCERTAINTY_ASSIGNED_CONTEXT ( ( #84 ) ) GLOBAL_UNIT_ASSIGNED_CONTEXT ( ( #97, #51, #134 ) ) REPRESENTATION_CONTEXT ( 'NONE', 'WORKASPACE' ) );
#124 = PRODUCT_DEFINITION_CONTEXT ( 'detailed design', #73, 'design' ) ;
#125 =( LENGTH_UNIT ( ) NAMED_UNIT ( * ) SI_UNIT ( $, .METRE. ) );
#126 = DIMENSIONAL_EXPONENTS ( 1.000000000000000000, 0.000000000000000000, 0.000000000000000000, 0.000000000000000000, 0.000000000000000000, 0.000000000000000000, 0.000000000000000000 ) ;
#127 = FILL_AREA_STYLE ('',( #40 ) ) ;
#128 = EDGE_LOOP ( 'NONE', ( #21 ) ) ;
#129 = ORIENTED_EDGE ( 'NONE', *, *, #48, .F. ) ;
#130 = DIRECTION ( 'NONE',  ( 0.000000000000000000, 0.000000000000000000, 1.000000000000000000 ) ) ;
#131 = PLANE ( 'NONE',  #20 ) ;
#132 = EDGE_CURVE ( 'NONE', #139, #139, #65, .T. ) ;
#133 = SURFACE_STYLE_FILL_AREA ( #127 ) ;
#134 =( NAMED_UNIT ( * ) SI_UNIT ( $, .STERADIAN. ) SOLID_ANGLE_UNIT ( ) );
#135 = CLOSED_SHELL ( 'NONE', ( #118, #64, #22, #96 ) ) ;
#136 = FACE_OUTER_BOUND ( 'NONE', #67, .T. ) ;
#137 = STYLED_ITEM ( 'NONE', ( #121 ), #138 ) ;
#138 = MANIFOLD_SOLID_BREP ( 'Boss-Extrude1', #135 ) ;
#139 = VERTEX_POINT ( 'NONE', #62 ) ;
#140 = CARTESIAN_POINT ( 'NONE',  ( 0.000000000000000000, 5.000000000000000000, 0.4249999999999999889 ) ) ;
#141 =( GEOMETRIC_REPRESENTATION_CONTEXT ( 3 ) GLOBAL_UNCERTAINTY_ASSIGNED_CONTEXT ( ( #10 ) ) GLOBAL_UNIT_ASSIGNED_CONTEXT ( ( #102, #26, #1 ) ) REPRESENTATION_CONTEXT ( 'NONE', 'WORKASPACE' ) );
#142 = EDGE_LOOP ( 'NONE', ( #129 ) ) ;
#143 = FACE_OUTER_BOUND ( 'NONE', #77, .T. ) ;
ENDSEC;
END-ISO-10303-21;
