ISO-10303-21;
HEADER;
FILE_DESCRIPTION (( 'STEP AP203' ),
    '1' );
FILE_NAME ('am-4768 0.140 ID 0.250 OD 0.156 Long.STEP',
    '2022-10-10T15:36:02',
    ( '' ),
    ( '' ),
    'SwSTEP 2.0',
    'SolidWorks 2022',
    '' );
FILE_SCHEMA (( 'CONFIG_CONTROL_DESIGN' ));
ENDSEC;

DATA;
#1 = PLANE ( 'NONE',  #60 ) ;
#2 = CARTESIAN_POINT ( 'NONE',  ( 0.07000000000000000666, 8.572527594031471957E-18, 0.000000000000000000 ) ) ;
#3 = CARTESIAN_POINT ( 'NONE',  ( 0.000000000000000000, 0.000000000000000000, 0.1559999999999999998 ) ) ;
#4 = ORIENTED_EDGE ( 'NONE', *, *, #10, .T. ) ;
#5 = DIRECTION ( 'NONE',  ( -0.000000000000000000, -0.000000000000000000, -1.000000000000000000 ) ) ;
#6 = ORIENTED_EDGE ( 'NONE', *, *, #223, .T. ) ;
#7 = PERSON_AND_ORGANIZATION ( #245, #118 ) ;
#8 = DIRECTION ( 'NONE',  ( 0.000000000000000000, 0.000000000000000000, 1.000000000000000000 ) ) ;
#9 = DATE_AND_TIME ( #46, #98 ) ;
#10 = EDGE_CURVE ( 'NONE', #91, #20, #150, .T. ) ;
#11 = CYLINDRICAL_SURFACE ( 'NONE', #187, 0.1250000000000000000 ) ;
#12 = CYLINDRICAL_SURFACE ( 'NONE', #195, 0.1250000000000000000 ) ;
#13 = AXIS2_PLACEMENT_3D ( 'NONE', #204, #135, #188 ) ;
#14 = FACE_OUTER_BOUND ( 'NONE', #63, .T. ) ;
#15 = AXIS2_PLACEMENT_3D ( 'NONE', #222, #152, #117 ) ;
#16 = CC_DESIGN_SECURITY_CLASSIFICATION ( #225, ( #62 ) ) ;
#17 = CIRCLE ( 'NONE', #61, 0.1250000000000000000 ) ;
#18 = ORIENTED_EDGE ( 'NONE', *, *, #170, .F. ) ;
#19 = EDGE_LOOP ( 'NONE', ( #21, #212 ) ) ;
#20 = VERTEX_POINT ( 'NONE', #174 ) ;
#21 = ORIENTED_EDGE ( 'NONE', *, *, #99, .F. ) ;
#22 = CARTESIAN_POINT ( 'NONE',  ( 0.000000000000000000, 0.000000000000000000, 0.000000000000000000 ) ) ;
#23 = ORIENTED_EDGE ( 'NONE', *, *, #170, .T. ) ;
#24 = CALENDAR_DATE ( 2022, 10, 10 ) ;
#25 = DIRECTION ( 'NONE',  ( -0.000000000000000000, -0.000000000000000000, -1.000000000000000000 ) ) ;
#26 = APPROVAL_ROLE ( '' ) ;
#27 = ADVANCED_FACE ( 'NONE', ( #127 ), #231, .F. ) ;
#28 =( GEOMETRIC_REPRESENTATION_CONTEXT ( 3 ) GLOBAL_UNCERTAINTY_ASSIGNED_CONTEXT ( ( #48 ) ) GLOBAL_UNIT_ASSIGNED_CONTEXT ( ( #209, #105, #191 ) ) REPRESENTATION_CONTEXT ( 'NONE', 'WORKASPACE' ) );
#29 = CALENDAR_DATE ( 2022, 10, 10 ) ;
#30 = LOCAL_TIME ( 11, 36, 2.000000000000000000, #155 ) ;
#31 = CARTESIAN_POINT ( 'NONE',  ( 0.000000000000000000, 0.000000000000000000, 0.1559999999999999998 ) ) ;
#32 = DIRECTION ( 'NONE',  ( 0.000000000000000000, 0.000000000000000000, 1.000000000000000000 ) ) ;
#33 = DIRECTION ( 'NONE',  ( -0.000000000000000000, -0.000000000000000000, -1.000000000000000000 ) ) ;
#34 = APPROVAL_PERSON_ORGANIZATION ( #241, #175, #239 ) ;
#35 = DATE_AND_TIME ( #29, #30 ) ;
#36 = APPROVAL ( #71, 'UNSPECIFIED' ) ;
#37 = DIRECTION ( 'NONE',  ( 1.000000000000000000, 0.000000000000000000, 0.000000000000000000 ) ) ;
#38 = CARTESIAN_POINT ( 'NONE',  ( 0.07000000000000000666, 8.572527594031471957E-18, 0.1559999999999999998 ) ) ;
#39 = ORIENTED_EDGE ( 'NONE', *, *, #251, .T. ) ;
#40 = EDGE_CURVE ( 'NONE', #162, #165, #210, .T. ) ;
#41 = ORIENTED_EDGE ( 'NONE', *, *, #193, .T. ) ;
#42 = CARTESIAN_POINT ( 'NONE',  ( -0.07000000000000000666, 0.000000000000000000, 0.1559999999999999998 ) ) ;
#43 = CIRCLE ( 'NONE', #137, 0.07000000000000000666 ) ;
#44 = EDGE_LOOP ( 'NONE', ( #217, #4, #6, #252 ) ) ;
#45 = PERSON_AND_ORGANIZATION ( #245, #118 ) ;
#46 = CALENDAR_DATE ( 2022, 10, 10 ) ;
#47 = DIRECTION ( 'NONE',  ( -1.000000000000000000, 0.000000000000000000, 0.000000000000000000 ) ) ;
#48 = UNCERTAINTY_MEASURE_WITH_UNIT (LENGTH_MEASURE( 1.000000000000000082E-05 ), #209, 'distance_accuracy_value', 'NONE');
#49 = SECURITY_CLASSIFICATION_LEVEL ( 'unclassified' ) ;
#50 = CIRCLE ( 'NONE', #208, 0.1250000000000000000 ) ;
#51 = CARTESIAN_POINT ( 'NONE',  ( 0.000000000000000000, 0.000000000000000000, 0.1559999999999999998 ) ) ;
#52 = ADVANCED_BREP_SHAPE_REPRESENTATION ( 'am-4768 0.140 ID 0.250 OD 0.156 Long', ( #189, #57 ), #28 ) ;
#53 = CYLINDRICAL_SURFACE ( 'NONE', #13, 0.07000000000000000666 ) ;
#54 = CARTESIAN_POINT ( 'NONE',  ( -0.1250000000000000000, 0.000000000000000000, 0.000000000000000000 ) ) ;
#55 = VECTOR ( 'NONE', #5, 39.37007874015748143 ) ;
#56 = PERSON_AND_ORGANIZATION ( #245, #118 ) ;
#57 = AXIS2_PLACEMENT_3D ( 'NONE', #22, #184, #129 ) ;
#58 = CC_DESIGN_PERSON_AND_ORGANIZATION_ASSIGNMENT ( #111, #179, ( #62 ) ) ;
#59 = FACE_BOUND ( 'NONE', #19, .T. ) ;
#60 = AXIS2_PLACEMENT_3D ( 'NONE', #143, #88, #125 ) ;
#61 = AXIS2_PLACEMENT_3D ( 'NONE', #181, #139, #37 ) ;
#62 = PRODUCT_DEFINITION_FORMATION_WITH_SPECIFIED_SOURCE ( 'ANY', '', #122, .NOT_KNOWN. ) ;
#63 = EDGE_LOOP ( 'NONE', ( #196, #23, #145, #190 ) ) ;
#64 = LOCAL_TIME ( 11, 36, 2.000000000000000000, #68 ) ;
#65 = PRODUCT_RELATED_PRODUCT_CATEGORY ( 'detail', '', ( #122 ) ) ;
#66 = DIRECTION ( 'NONE',  ( 0.000000000000000000, 0.000000000000000000, 1.000000000000000000 ) ) ;
#67 = EDGE_LOOP ( 'NONE', ( #101, #104 ) ) ;
#68 = COORDINATED_UNIVERSAL_TIME_OFFSET ( 5, 0, .BEHIND. ) ;
#69 = ORIENTED_EDGE ( 'NONE', *, *, #211, .T. ) ;
#70 = DESIGN_CONTEXT ( 'detailed design', #158, 'design' ) ;
#71 = APPROVAL_STATUS ( 'not_yet_approved' ) ;
#72 = CARTESIAN_POINT ( 'NONE',  ( -0.1250000000000000000, 0.000000000000000000, 0.1559999999999999998 ) ) ;
#73 = PERSON_AND_ORGANIZATION ( #245, #118 ) ;
#74 = DIRECTION ( 'NONE',  ( 1.000000000000000000, 0.000000000000000000, -0.000000000000000000 ) ) ;
#75 = AXIS2_PLACEMENT_3D ( 'NONE', #149, #130, #74 ) ;
#76 = CARTESIAN_POINT ( 'NONE',  ( -0.07000000000000000666, 0.000000000000000000, 0.000000000000000000 ) ) ;
#77 = DIRECTION ( 'NONE',  ( 1.000000000000000000, 0.000000000000000000, 0.000000000000000000 ) ) ;
#78 = LINE ( 'NONE', #72, #206 ) ;
#79 = PERSON_AND_ORGANIZATION_ROLE ( 'design_supplier' ) ;
#80 = AXIS2_PLACEMENT_3D ( 'NONE', #163, #233, #173 ) ;
#81 = DATE_TIME_ROLE ( 'classification_date' ) ;
#82 = ADVANCED_FACE ( 'NONE', ( #215, #59 ), #1, .T. ) ;
#83 = PRODUCT_DEFINITION_SHAPE ( 'NONE', 'NONE',  #153 ) ;
#84 = LINE ( 'NONE', #42, #55 ) ;
#85 = CARTESIAN_POINT ( 'NONE',  ( 0.000000000000000000, 0.000000000000000000, 0.000000000000000000 ) ) ;
#86 = ORIENTED_EDGE ( 'NONE', *, *, #99, .T. ) ;
#87 = APPROVAL ( #221, 'UNSPECIFIED' ) ;
#88 = DIRECTION ( 'NONE',  ( 0.000000000000000000, 0.000000000000000000, 1.000000000000000000 ) ) ;
#89 = FACE_OUTER_BOUND ( 'NONE', #142, .T. ) ;
#90 = COORDINATED_UNIVERSAL_TIME_OFFSET ( 5, 0, .BEHIND. ) ;
#91 = VERTEX_POINT ( 'NONE', #38 ) ;
#92 = PERSON_AND_ORGANIZATION_ROLE ( 'design_owner' ) ;
#93 = CIRCLE ( 'NONE', #94, 0.1250000000000000000 ) ;
#94 = AXIS2_PLACEMENT_3D ( 'NONE', #229, #213, #159 ) ;
#95 = COORDINATED_UNIVERSAL_TIME_OFFSET ( 5, 0, .BEHIND. ) ;
#96 = CARTESIAN_POINT ( 'NONE',  ( 0.000000000000000000, 0.000000000000000000, 0.000000000000000000 ) ) ;
#97 = ADVANCED_FACE ( 'NONE', ( #89, #234 ), #112, .F. ) ;
#98 = LOCAL_TIME ( 11, 36, 2.000000000000000000, #95 ) ;
#99 = EDGE_CURVE ( 'NONE', #20, #91, #157, .T. ) ;
#100 = LOCAL_TIME ( 11, 36, 2.000000000000000000, #90 ) ;
#101 = ORIENTED_EDGE ( 'NONE', *, *, #147, .T. ) ;
#102 = EDGE_CURVE ( 'NONE', #237, #172, #200, .T. ) ;
#103 = EDGE_LOOP ( 'NONE', ( #86, #194, #230, #214 ) ) ;
#104 = ORIENTED_EDGE ( 'NONE', *, *, #102, .T. ) ;
#105 =( NAMED_UNIT ( * ) PLANE_ANGLE_UNIT ( ) SI_UNIT ( $, .RADIAN. ) );
#106 = ORIENTED_EDGE ( 'NONE', *, *, #251, .F. ) ;
#107 = VERTEX_POINT ( 'NONE', #197 ) ;
#108 = CC_DESIGN_DATE_AND_TIME_ASSIGNMENT ( #35, #81, ( #225 ) ) ;
#109 = DATE_AND_TIME ( #24, #249 ) ;
#110 = DIRECTION ( 'NONE',  ( -0.000000000000000000, -0.000000000000000000, -1.000000000000000000 ) ) ;
#111 = PERSON_AND_ORGANIZATION ( #245, #118 ) ;
#112 = PLANE ( 'NONE',  #75 ) ;
#113 = PERSON_AND_ORGANIZATION ( #245, #118 ) ;
#114 = DIRECTION ( 'NONE',  ( -1.000000000000000000, 0.000000000000000000, 0.000000000000000000 ) ) ;
#115 = CC_DESIGN_PERSON_AND_ORGANIZATION_ASSIGNMENT ( #56, #154, ( #153 ) ) ;
#116 = CARTESIAN_POINT ( 'NONE',  ( 0.07000000000000000666, 8.572527594031471957E-18, 0.1559999999999999998 ) ) ;
#117 = DIRECTION ( 'NONE',  ( 1.000000000000000000, 0.000000000000000000, 0.000000000000000000 ) ) ;
#118 = ORGANIZATION ( 'UNSPECIFIED', 'UNSPECIFIED', '' ) ;
#119 = DATE_TIME_ROLE ( 'creation_date' ) ;
#120 = CALENDAR_DATE ( 2022, 10, 10 ) ;
#121 = EDGE_CURVE ( 'NONE', #165, #162, #50, .T. ) ;
#122 = PRODUCT ( 'am-4768 0.140 ID 0.250 OD 0.156 Long', 'am-4768 0.140 ID 0.250 OD 0.156 Long', '', ( #146 ) ) ;
#123 = DIRECTION ( 'NONE',  ( 0.000000000000000000, 0.000000000000000000, 1.000000000000000000 ) ) ;
#124 = EDGE_LOOP ( 'NONE', ( #18, #106, #41, #177 ) ) ;
#125 = DIRECTION ( 'NONE',  ( 1.000000000000000000, 0.000000000000000000, -0.000000000000000000 ) ) ;
#126 =( LENGTH_UNIT ( ) NAMED_UNIT ( * ) SI_UNIT ( $, .METRE. ) );
#127 = FACE_OUTER_BOUND ( 'NONE', #103, .T. ) ;
#128 = ADVANCED_FACE ( 'NONE', ( #203 ), #11, .T. ) ;
#129 = DIRECTION ( 'NONE',  ( 1.000000000000000000, 0.000000000000000000, 0.000000000000000000 ) ) ;
#130 = DIRECTION ( 'NONE',  ( 0.000000000000000000, 0.000000000000000000, 1.000000000000000000 ) ) ;
#131 = APPROVAL_DATE_TIME ( #9, #87 ) ;
#132 = DIRECTION ( 'NONE',  ( -0.000000000000000000, -0.000000000000000000, -1.000000000000000000 ) ) ;
#133 = EDGE_CURVE ( 'NONE', #91, #237, #134, .T. ) ;
#134 = LINE ( 'NONE', #116, #236 ) ;
#135 = DIRECTION ( 'NONE',  ( -0.000000000000000000, -0.000000000000000000, -1.000000000000000000 ) ) ;
#136 = CARTESIAN_POINT ( 'NONE',  ( 0.000000000000000000, 0.000000000000000000, 0.000000000000000000 ) ) ;
#137 = AXIS2_PLACEMENT_3D ( 'NONE', #96, #186, #240 ) ;
#138 = DATE_AND_TIME ( #148, #100 ) ;
#139 = DIRECTION ( 'NONE',  ( 0.000000000000000000, 0.000000000000000000, 1.000000000000000000 ) ) ;
#140 = LENGTH_MEASURE_WITH_UNIT ( LENGTH_MEASURE( 0.02539999999999999897 ), #126 );
#141 = VERTEX_POINT ( 'NONE', #226 ) ;
#142 = EDGE_LOOP ( 'NONE', ( #144, #161 ) ) ;
#143 = CARTESIAN_POINT ( 'NONE',  ( 0.000000000000000000, 0.000000000000000000, 0.1559999999999999998 ) ) ;
#144 = ORIENTED_EDGE ( 'NONE', *, *, #121, .F. ) ;
#145 = ORIENTED_EDGE ( 'NONE', *, *, #40, .T. ) ;
#146 = MECHANICAL_CONTEXT ( 'NONE', #250, 'mechanical' ) ;
#147 = EDGE_CURVE ( 'NONE', #172, #237, #43, .T. ) ;
#148 = CALENDAR_DATE ( 2022, 10, 10 ) ;
#149 = CARTESIAN_POINT ( 'NONE',  ( 0.000000000000000000, 0.000000000000000000, 0.000000000000000000 ) ) ;
#150 = CIRCLE ( 'NONE', #205, 0.07000000000000000666 ) ;
#151 = FACE_OUTER_BOUND ( 'NONE', #44, .T. ) ;
#152 = DIRECTION ( 'NONE',  ( 0.000000000000000000, 0.000000000000000000, 1.000000000000000000 ) ) ;
#153 = PRODUCT_DEFINITION ( 'UNKNOWN', '', #62, #70 ) ;
#154 = PERSON_AND_ORGANIZATION_ROLE ( 'creator' ) ;
#155 = COORDINATED_UNIVERSAL_TIME_OFFSET ( 5, 0, .BEHIND. ) ;
#156 = ADVANCED_FACE ( 'NONE', ( #14 ), #12, .T. ) ;
#157 = CIRCLE ( 'NONE', #15, 0.07000000000000000666 ) ;
#158 = APPLICATION_CONTEXT ( 'configuration controlled 3d designs of mechanical parts and assemblies' ) ;
#159 = DIRECTION ( 'NONE',  ( 1.000000000000000000, 0.000000000000000000, 0.000000000000000000 ) ) ;
#160 = DIRECTION ( 'NONE',  ( 1.000000000000000000, 0.000000000000000000, 0.000000000000000000 ) ) ;
#161 = ORIENTED_EDGE ( 'NONE', *, *, #40, .F. ) ;
#162 = VERTEX_POINT ( 'NONE', #169 ) ;
#163 = CARTESIAN_POINT ( 'NONE',  ( 0.000000000000000000, 0.000000000000000000, 0.1559999999999999998 ) ) ;
#164 = APPROVAL_DATE_TIME ( #138, #175 ) ;
#165 = VERTEX_POINT ( 'NONE', #54 ) ;
#166 = DATE_AND_TIME ( #120, #64 ) ;
#167 = CC_DESIGN_PERSON_AND_ORGANIZATION_ASSIGNMENT ( #235, #248, ( #225 ) ) ;
#168 = APPLICATION_PROTOCOL_DEFINITION ( 'international standard', 'config_control_design', 1994, #158 ) ;
#169 = CARTESIAN_POINT ( 'NONE',  ( 0.1250000000000000000, 1.530808498934191509E-17, 0.000000000000000000 ) ) ;
#170 = EDGE_CURVE ( 'NONE', #107, #162, #244, .T. ) ;
#171 = APPROVAL_PERSON_ORGANIZATION ( #7, #36, #243 ) ;
#172 = VERTEX_POINT ( 'NONE', #76 ) ;
#173 = DIRECTION ( 'NONE',  ( -1.000000000000000000, 0.000000000000000000, 0.000000000000000000 ) ) ;
#174 = CARTESIAN_POINT ( 'NONE',  ( -0.07000000000000000666, 0.000000000000000000, 0.1559999999999999998 ) ) ;
#175 = APPROVAL ( #182, 'UNSPECIFIED' ) ;
#176 = APPLICATION_PROTOCOL_DEFINITION ( 'international standard', 'config_control_design', 1994, #250 ) ;
#177 = ORIENTED_EDGE ( 'NONE', *, *, #121, .T. ) ;
#178 = DIRECTION ( 'NONE',  ( 1.000000000000000000, 0.000000000000000000, 0.000000000000000000 ) ) ;
#179 = PERSON_AND_ORGANIZATION_ROLE ( 'creator' ) ;
#180 = ADVANCED_FACE ( 'NONE', ( #151 ), #53, .F. ) ;
#181 = CARTESIAN_POINT ( 'NONE',  ( 0.000000000000000000, 0.000000000000000000, 0.1559999999999999998 ) ) ;
#182 = APPROVAL_STATUS ( 'not_yet_approved' ) ;
#183 = DIMENSIONAL_EXPONENTS ( 1.000000000000000000, 0.000000000000000000, 0.000000000000000000, 0.000000000000000000, 0.000000000000000000, 0.000000000000000000, 0.000000000000000000 ) ;
#184 = DIRECTION ( 'NONE',  ( 0.000000000000000000, 0.000000000000000000, 1.000000000000000000 ) ) ;
#185 = DIRECTION ( 'NONE',  ( -0.000000000000000000, -0.000000000000000000, -1.000000000000000000 ) ) ;
#186 = DIRECTION ( 'NONE',  ( 0.000000000000000000, 0.000000000000000000, 1.000000000000000000 ) ) ;
#187 = AXIS2_PLACEMENT_3D ( 'NONE', #51, #25, #47 ) ;
#188 = DIRECTION ( 'NONE',  ( -1.000000000000000000, 0.000000000000000000, 0.000000000000000000 ) ) ;
#189 = MANIFOLD_SOLID_BREP ( 'Boss-Extrude1', #227 ) ;
#190 = ORIENTED_EDGE ( 'NONE', *, *, #193, .F. ) ;
#191 =( NAMED_UNIT ( * ) SI_UNIT ( $, .STERADIAN. ) SOLID_ANGLE_UNIT ( ) );
#192 = EDGE_LOOP ( 'NONE', ( #39, #69 ) ) ;
#193 = EDGE_CURVE ( 'NONE', #141, #165, #78, .T. ) ;
#194 = ORIENTED_EDGE ( 'NONE', *, *, #133, .T. ) ;
#195 = AXIS2_PLACEMENT_3D ( 'NONE', #31, #33, #114 ) ;
#196 = ORIENTED_EDGE ( 'NONE', *, *, #211, .F. ) ;
#197 = CARTESIAN_POINT ( 'NONE',  ( 0.1250000000000000000, 1.530808498934191509E-17, 0.1559999999999999998 ) ) ;
#198 = COORDINATED_UNIVERSAL_TIME_OFFSET ( 5, 0, .BEHIND. ) ;
#199 = CARTESIAN_POINT ( 'NONE',  ( 0.000000000000000000, 0.000000000000000000, 0.000000000000000000 ) ) ;
#200 = CIRCLE ( 'NONE', #246, 0.07000000000000000666 ) ;
#201 = APPROVAL_PERSON_ORGANIZATION ( #113, #87, #26 ) ;
#202 = CC_DESIGN_APPROVAL ( #36, ( #225 ) ) ;
#203 = FACE_OUTER_BOUND ( 'NONE', #124, .T. ) ;
#204 = CARTESIAN_POINT ( 'NONE',  ( 0.000000000000000000, 0.000000000000000000, 0.1559999999999999998 ) ) ;
#205 = AXIS2_PLACEMENT_3D ( 'NONE', #3, #123, #178 ) ;
#206 = VECTOR ( 'NONE', #110, 39.37007874015748143 ) ;
#207 = CC_DESIGN_PERSON_AND_ORGANIZATION_ASSIGNMENT ( #73, #92, ( #122 ) ) ;
#208 = AXIS2_PLACEMENT_3D ( 'NONE', #136, #32, #220 ) ;
#209 =( CONVERSION_BASED_UNIT ( 'INCH', #140 ) LENGTH_UNIT ( ) NAMED_UNIT ( #183 ) );
#210 = CIRCLE ( 'NONE', #247, 0.1250000000000000000 ) ;
#211 = EDGE_CURVE ( 'NONE', #107, #141, #17, .T. ) ;
#212 = ORIENTED_EDGE ( 'NONE', *, *, #10, .F. ) ;
#213 = DIRECTION ( 'NONE',  ( 0.000000000000000000, 0.000000000000000000, 1.000000000000000000 ) ) ;
#214 = ORIENTED_EDGE ( 'NONE', *, *, #223, .F. ) ;
#215 = FACE_OUTER_BOUND ( 'NONE', #192, .T. ) ;
#216 = VECTOR ( 'NONE', #132, 39.37007874015748143 ) ;
#217 = ORIENTED_EDGE ( 'NONE', *, *, #133, .F. ) ;
#218 = CC_DESIGN_DATE_AND_TIME_ASSIGNMENT ( #109, #119, ( #153 ) ) ;
#219 = SHAPE_DEFINITION_REPRESENTATION ( #83, #52 ) ;
#220 = DIRECTION ( 'NONE',  ( 1.000000000000000000, 0.000000000000000000, 0.000000000000000000 ) ) ;
#221 = APPROVAL_STATUS ( 'not_yet_approved' ) ;
#222 = CARTESIAN_POINT ( 'NONE',  ( 0.000000000000000000, 0.000000000000000000, 0.1559999999999999998 ) ) ;
#223 = EDGE_CURVE ( 'NONE', #20, #172, #84, .T. ) ;
#224 = CARTESIAN_POINT ( 'NONE',  ( 0.1250000000000000000, 1.530808498934191509E-17, 0.1559999999999999998 ) ) ;
#225 = SECURITY_CLASSIFICATION ( '', '', #49 ) ;
#226 = CARTESIAN_POINT ( 'NONE',  ( -0.1250000000000000000, 0.000000000000000000, 0.1559999999999999998 ) ) ;
#227 = CLOSED_SHELL ( 'NONE', ( #27, #156, #82, #97, #128, #180 ) ) ;
#228 = APPROVAL_DATE_TIME ( #166, #36 ) ;
#229 = CARTESIAN_POINT ( 'NONE',  ( 0.000000000000000000, 0.000000000000000000, 0.1559999999999999998 ) ) ;
#230 = ORIENTED_EDGE ( 'NONE', *, *, #147, .F. ) ;
#231 = CYLINDRICAL_SURFACE ( 'NONE', #80, 0.07000000000000000666 ) ;
#232 = CC_DESIGN_APPROVAL ( #87, ( #62 ) ) ;
#233 = DIRECTION ( 'NONE',  ( -0.000000000000000000, -0.000000000000000000, -1.000000000000000000 ) ) ;
#234 = FACE_BOUND ( 'NONE', #67, .T. ) ;
#235 = PERSON_AND_ORGANIZATION ( #245, #118 ) ;
#236 = VECTOR ( 'NONE', #185, 39.37007874015748143 ) ;
#237 = VERTEX_POINT ( 'NONE', #2 ) ;
#238 = CC_DESIGN_APPROVAL ( #175, ( #153 ) ) ;
#239 = APPROVAL_ROLE ( '' ) ;
#240 = DIRECTION ( 'NONE',  ( 1.000000000000000000, 0.000000000000000000, 0.000000000000000000 ) ) ;
#241 = PERSON_AND_ORGANIZATION ( #245, #118 ) ;
#242 = CC_DESIGN_PERSON_AND_ORGANIZATION_ASSIGNMENT ( #45, #79, ( #62 ) ) ;
#243 = APPROVAL_ROLE ( '' ) ;
#244 = LINE ( 'NONE', #224, #216 ) ;
#245 = PERSON ( 'UNSPECIFIED', 'UNSPECIFIED', 'UNSPECIFIED', ('UNSPECIFIED'), ('UNSPECIFIED'), ('UNSPECIFIED') ) ;
#246 = AXIS2_PLACEMENT_3D ( 'NONE', #199, #8, #77 ) ;
#247 = AXIS2_PLACEMENT_3D ( 'NONE', #85, #66, #160 ) ;
#248 = PERSON_AND_ORGANIZATION_ROLE ( 'classification_officer' ) ;
#249 = LOCAL_TIME ( 11, 36, 2.000000000000000000, #198 ) ;
#250 = APPLICATION_CONTEXT ( 'configuration controlled 3d designs of mechanical parts and assemblies' ) ;
#251 = EDGE_CURVE ( 'NONE', #141, #107, #93, .T. ) ;
#252 = ORIENTED_EDGE ( 'NONE', *, *, #102, .F. ) ;
ENDSEC;
END-ISO-10303-21;
