ISO-10303-21;
HEADER;
FILE_DESCRIPTION (( 'STEP AP214' ),
    '1' );
FILE_NAME ('am-4764 4IN BB Mecanum Axle Sleeve.STEP',
    '2022-08-09T17:47:27',
    ( '' ),
    ( '' ),
    'SwSTEP 2.0',
    'SolidWorks 2022',
    '' );
FILE_SCHEMA (( 'AUTOMOTIVE_DESIGN' ));
ENDSEC;

DATA;
#1 = ORIENTED_EDGE ( 'NONE', *, *, #160, .F. ) ;
#2 = DIRECTION ( 'NONE',  ( 0.000000000000000000, 0.000000000000000000, 1.000000000000000000 ) ) ;
#3 = ORIENTED_EDGE ( 'NONE', *, *, #186, .F. ) ;
#4 = DIRECTION ( 'NONE',  ( 0.000000000000000000, -0.000000000000000000, 1.000000000000000000 ) ) ;
#5 = DIRECTION ( 'NONE',  ( -0.000000000000000000, -1.000000000000000000, -0.000000000000000000 ) ) ;
#6 = CIRCLE ( 'NONE', #33, 0.09375000000000001388 ) ;
#7 = CARTESIAN_POINT ( 'NONE',  ( 0.000000000000000000, 1.347399999999999931, 0.000000000000000000 ) ) ;
#8 = DIRECTION ( 'NONE',  ( -0.000000000000000000, -1.000000000000000000, -0.000000000000000000 ) ) ;
#9 = EDGE_CURVE ( 'NONE', #20, #136, #57, .T. ) ;
#10 = FACE_OUTER_BOUND ( 'NONE', #203, .T. ) ;
#11 = SURFACE_SIDE_STYLE ('',( #64 ) ) ;
#12 = CARTESIAN_POINT ( 'NONE',  ( 0.000000000000000000, 1.347399999999999931, 0.000000000000000000 ) ) ;
#13 = CARTESIAN_POINT ( 'NONE',  ( 0.000000000000000000, 1.347399999999999931, 0.000000000000000000 ) ) ;
#14 = DIRECTION ( 'NONE',  ( 0.000000000000000000, 0.000000000000000000, 1.000000000000000000 ) ) ;
#15 =( NAMED_UNIT ( * ) SI_UNIT ( $, .STERADIAN. ) SOLID_ANGLE_UNIT ( ) );
#16 = FACE_BOUND ( 'NONE', #192, .T. ) ;
#17 = LENGTH_MEASURE_WITH_UNIT ( LENGTH_MEASURE( 0.02539999999999999897 ), #102 );
#18 = ORIENTED_EDGE ( 'NONE', *, *, #211, .T. ) ;
#19 = ORIENTED_EDGE ( 'NONE', *, *, #125, .F. ) ;
#20 = VERTEX_POINT ( 'NONE', #66 ) ;
#21 = VECTOR ( 'NONE', #34, 39.37007874015748143 ) ;
#22 = DIRECTION ( 'NONE',  ( -0.000000000000000000, -1.000000000000000000, -0.000000000000000000 ) ) ;
#23 = EDGE_CURVE ( 'NONE', #210, #119, #199, .T. ) ;
#24 = UNCERTAINTY_MEASURE_WITH_UNIT (LENGTH_MEASURE( 1.000000000000000082E-05 ), #118, 'distance_accuracy_value', 'NONE');
#25 = COLOUR_RGB ( '',0.6470588235294117974, 0.5176470588235293491, 0.000000000000000000 ) ;
#26 = CARTESIAN_POINT ( 'NONE',  ( 0.000000000000000000, 1.347399999999999931, 0.000000000000000000 ) ) ;
#27 = VECTOR ( 'NONE', #157, 39.37007874015748143 ) ;
#28 = DIRECTION ( 'NONE',  ( 0.000000000000000000, 1.000000000000000000, 0.000000000000000000 ) ) ;
#29 =( GEOMETRIC_REPRESENTATION_CONTEXT ( 3 ) GLOBAL_UNCERTAINTY_ASSIGNED_CONTEXT ( ( #24 ) ) GLOBAL_UNIT_ASSIGNED_CONTEXT ( ( #118, #185, #98 ) ) REPRESENTATION_CONTEXT ( 'NONE', 'WORKASPACE' ) );
#30 = CARTESIAN_POINT ( 'NONE',  ( 0.000000000000000000, 0.000000000000000000, 0.000000000000000000 ) ) ;
#31 = SURFACE_STYLE_USAGE ( .BOTH. , #72 ) ;
#32 = FACE_OUTER_BOUND ( 'NONE', #99, .T. ) ;
#33 = AXIS2_PLACEMENT_3D ( 'NONE', #13, #117, #79 ) ;
#34 = DIRECTION ( 'NONE',  ( -0.000000000000000000, -1.000000000000000000, -0.000000000000000000 ) ) ;
#35 = EDGE_CURVE ( 'NONE', #20, #190, #68, .T. ) ;
#36 = SHAPE_DEFINITION_REPRESENTATION ( #63, #107 ) ;
#37 = ORIENTED_EDGE ( 'NONE', *, *, #211, .F. ) ;
#38 = DIRECTION ( 'NONE',  ( 0.000000000000000000, 1.000000000000000000, 0.000000000000000000 ) ) ;
#39 = CYLINDRICAL_SURFACE ( 'NONE', #179, 0.06149999999999998523 ) ;
#40 =( GEOMETRIC_REPRESENTATION_CONTEXT ( 3 ) GLOBAL_UNCERTAINTY_ASSIGNED_CONTEXT ( ( #59 ) ) GLOBAL_UNIT_ASSIGNED_CONTEXT ( ( #161, #65, #15 ) ) REPRESENTATION_CONTEXT ( 'NONE', 'WORKASPACE' ) );
#41 = CYLINDRICAL_SURFACE ( 'NONE', #129, 0.06149999999999998523 ) ;
#42 = LINE ( 'NONE', #45, #148 ) ;
#43 = APPLICATION_CONTEXT ( 'automotive_design' ) ;
#44 = ADVANCED_FACE ( 'NONE', ( #32, #16 ), #167, .F. ) ;
#45 = CARTESIAN_POINT ( 'NONE',  ( 1.148106374200643863E-17, 1.347399999999999931, 0.09375000000000001388 ) ) ;
#46 = STYLED_ITEM ( 'NONE', ( #216 ), #213 ) ;
#47 =( NAMED_UNIT ( * ) PLANE_ANGLE_UNIT ( ) SI_UNIT ( $, .RADIAN. ) );
#48 = DIRECTION ( 'NONE',  ( 0.000000000000000000, 1.000000000000000000, 0.000000000000000000 ) ) ;
#49 = CARTESIAN_POINT ( 'NONE',  ( 7.531577814756220955E-18, 0.000000000000000000, 0.06149999999999998523 ) ) ;
#50 = ADVANCED_FACE ( 'NONE', ( #123 ), #41, .F. ) ;
#51 = CARTESIAN_POINT ( 'NONE',  ( 0.000000000000000000, 1.347399999999999931, -0.06149999999999998523 ) ) ;
#52 = DIRECTION ( 'NONE',  ( 1.000000000000000000, 0.000000000000000000, 0.000000000000000000 ) ) ;
#53 = DIRECTION ( 'NONE',  ( 0.000000000000000000, 1.000000000000000000, 0.000000000000000000 ) ) ;
#54 = CARTESIAN_POINT ( 'NONE',  ( 0.000000000000000000, 0.000000000000000000, 0.000000000000000000 ) ) ;
#55 = EDGE_CURVE ( 'NONE', #190, #20, #195, .T. ) ;
#56 = EDGE_LOOP ( 'NONE', ( #82, #73, #37, #134 ) ) ;
#57 = LINE ( 'NONE', #51, #21 ) ;
#58 = APPLICATION_PROTOCOL_DEFINITION ( 'draft international standard', 'automotive_design', 1998, #92 ) ;
#59 = UNCERTAINTY_MEASURE_WITH_UNIT (LENGTH_MEASURE( 1.000000000000000082E-05 ), #161, 'distance_accuracy_value', 'NONE');
#60 = LINE ( 'NONE', #131, #27 ) ;
#61 = DIRECTION ( 'NONE',  ( 0.000000000000000000, 0.000000000000000000, 1.000000000000000000 ) ) ;
#62 = CARTESIAN_POINT ( 'NONE',  ( 0.000000000000000000, 0.000000000000000000, -0.06149999999999998523 ) ) ;
#63 = PRODUCT_DEFINITION_SHAPE ( 'NONE', 'NONE',  #70 ) ;
#64 = SURFACE_STYLE_FILL_AREA ( #114 ) ;
#65 =( NAMED_UNIT ( * ) PLANE_ANGLE_UNIT ( ) SI_UNIT ( $, .RADIAN. ) );
#66 = CARTESIAN_POINT ( 'NONE',  ( 0.000000000000000000, 1.347399999999999931, -0.06149999999999998523 ) ) ;
#67 = VECTOR ( 'NONE', #8, 39.37007874015748143 ) ;
#68 = CIRCLE ( 'NONE', #105, 0.06149999999999998523 ) ;
#69 = EDGE_LOOP ( 'NONE', ( #169, #71, #122, #3 ) ) ;
#70 = PRODUCT_DEFINITION ( 'UNKNOWN', '', #87, #214 ) ;
#71 = ORIENTED_EDGE ( 'NONE', *, *, #55, .T. ) ;
#72 = SURFACE_SIDE_STYLE ('',( #207 ) ) ;
#73 = ORIENTED_EDGE ( 'NONE', *, *, #165, .T. ) ;
#74 = ORIENTED_EDGE ( 'NONE', *, *, #125, .T. ) ;
#75 = STYLED_ITEM ( 'NONE', ( #88 ), #107 ) ;
#76 = CIRCLE ( 'NONE', #100, 0.09375000000000001388 ) ;
#77 = AXIS2_PLACEMENT_3D ( 'NONE', #30, #162, #14 ) ;
#78 = DIRECTION ( 'NONE',  ( -0.000000000000000000, -1.000000000000000000, -0.000000000000000000 ) ) ;
#79 = DIRECTION ( 'NONE',  ( 0.000000000000000000, 0.000000000000000000, 1.000000000000000000 ) ) ;
#80 = CARTESIAN_POINT ( 'NONE',  ( 0.000000000000000000, 0.000000000000000000, 0.000000000000000000 ) ) ;
#81 = CARTESIAN_POINT ( 'NONE',  ( 0.000000000000000000, 0.000000000000000000, -0.09375000000000001388 ) ) ;
#82 = ORIENTED_EDGE ( 'NONE', *, *, #35, .T. ) ;
#83 = EDGE_CURVE ( 'NONE', #119, #210, #113, .T. ) ;
#84 = AXIS2_PLACEMENT_3D ( 'NONE', #12, #48, #144 ) ;
#85 = EDGE_LOOP ( 'NONE', ( #103, #1, #74, #101 ) ) ;
#86 = LENGTH_MEASURE_WITH_UNIT ( LENGTH_MEASURE( 0.02539999999999999897 ), #145 );
#87 = PRODUCT_DEFINITION_FORMATION_WITH_SPECIFIED_SOURCE ( 'ANY', '', #158, .NOT_KNOWN. ) ;
#88 = PRESENTATION_STYLE_ASSIGNMENT (( #31 ) ) ;
#89 = EDGE_LOOP ( 'NONE', ( #137, #90 ) ) ;
#90 = ORIENTED_EDGE ( 'NONE', *, *, #55, .F. ) ;
#91 = DIRECTION ( 'NONE',  ( -0.000000000000000000, -1.000000000000000000, -0.000000000000000000 ) ) ;
#92 = APPLICATION_CONTEXT ( 'automotive_design' ) ;
#93 = DIRECTION ( 'NONE',  ( -0.000000000000000000, -1.000000000000000000, -0.000000000000000000 ) ) ;
#94 = AXIS2_PLACEMENT_3D ( 'NONE', #7, #38, #106 ) ;
#95 =( CONVERSION_BASED_UNIT ( 'INCH', #111 ) LENGTH_UNIT ( ) NAMED_UNIT ( #171 ) );
#96 =( GEOMETRIC_REPRESENTATION_CONTEXT ( 3 ) GLOBAL_UNCERTAINTY_ASSIGNED_CONTEXT ( ( #177 ) ) GLOBAL_UNIT_ASSIGNED_CONTEXT ( ( #95, #47, #166 ) ) REPRESENTATION_CONTEXT ( 'NONE', 'WORKASPACE' ) );
#97 = CARTESIAN_POINT ( 'NONE',  ( 7.531577814756220955E-18, 1.347399999999999931, 0.06149999999999998523 ) ) ;
#98 =( NAMED_UNIT ( * ) SI_UNIT ( $, .STERADIAN. ) SOLID_ANGLE_UNIT ( ) );
#99 = EDGE_LOOP ( 'NONE', ( #223, #204 ) ) ;
#100 = AXIS2_PLACEMENT_3D ( 'NONE', #200, #155, #143 ) ;
#101 = ORIENTED_EDGE ( 'NONE', *, *, #23, .T. ) ;
#102 =( LENGTH_UNIT ( ) NAMED_UNIT ( * ) SI_UNIT ( $, .METRE. ) );
#103 = ORIENTED_EDGE ( 'NONE', *, *, #154, .F. ) ;
#104 = ORIENTED_EDGE ( 'NONE', *, *, #154, .T. ) ;
#105 = AXIS2_PLACEMENT_3D ( 'NONE', #147, #53, #187 ) ;
#106 = DIRECTION ( 'NONE',  ( 0.000000000000000000, 0.000000000000000000, 1.000000000000000000 ) ) ;
#107 = ADVANCED_BREP_SHAPE_REPRESENTATION ( 'am-4764 4IN BB Mecanum Axle Sleeve', ( #213, #220 ), #40 ) ;
#108 = CARTESIAN_POINT ( 'NONE',  ( 0.000000000000000000, 1.347399999999999931, 0.000000000000000000 ) ) ;
#109 = ADVANCED_FACE ( 'NONE', ( #139 ), #39, .F. ) ;
#110 = CARTESIAN_POINT ( 'NONE',  ( 7.531577814756220955E-18, 1.347399999999999931, 0.06149999999999998523 ) ) ;
#111 = LENGTH_MEASURE_WITH_UNIT ( LENGTH_MEASURE( 0.02539999999999999897 ), #180 );
#112 = CIRCLE ( 'NONE', #170, 0.06149999999999998523 ) ;
#113 = CIRCLE ( 'NONE', #124, 0.09375000000000001388 ) ;
#114 = FILL_AREA_STYLE ('',( #141 ) ) ;
#115 = PRODUCT_RELATED_PRODUCT_CATEGORY ( 'part', '', ( #158 ) ) ;
#116 = DIRECTION ( 'NONE',  ( 0.000000000000000000, 0.000000000000000000, 1.000000000000000000 ) ) ;
#117 = DIRECTION ( 'NONE',  ( 0.000000000000000000, 1.000000000000000000, 0.000000000000000000 ) ) ;
#118 =( CONVERSION_BASED_UNIT ( 'INCH', #86 ) LENGTH_UNIT ( ) NAMED_UNIT ( #193 ) );
#119 = VERTEX_POINT ( 'NONE', #127 ) ;
#120 = ORIENTED_EDGE ( 'NONE', *, *, #83, .T. ) ;
#121 = PRODUCT_CONTEXT ( 'NONE', #43, 'mechanical' ) ;
#122 = ORIENTED_EDGE ( 'NONE', *, *, #9, .T. ) ;
#123 = FACE_OUTER_BOUND ( 'NONE', #69, .T. ) ;
#124 = AXIS2_PLACEMENT_3D ( 'NONE', #173, #152, #196 ) ;
#125 = EDGE_CURVE ( 'NONE', #151, #210, #60, .T. ) ;
#126 = COLOUR_RGB ( '',0.6470588235294117974, 0.5176470588235293491, 0.000000000000000000 ) ;
#127 = CARTESIAN_POINT ( 'NONE',  ( 1.148106374200643863E-17, 0.000000000000000000, 0.09375000000000001388 ) ) ;
#128 = SURFACE_STYLE_USAGE ( .BOTH. , #11 ) ;
#129 = AXIS2_PLACEMENT_3D ( 'NONE', #108, #22, #194 ) ;
#130 = CARTESIAN_POINT ( 'NONE',  ( 0.000000000000000000, 1.347399999999999931, -0.09375000000000001388 ) ) ;
#131 = CARTESIAN_POINT ( 'NONE',  ( 0.000000000000000000, 1.347399999999999931, -0.09375000000000001388 ) ) ;
#132 = VERTEX_POINT ( 'NONE', #49 ) ;
#133 = AXIS2_PLACEMENT_3D ( 'NONE', #149, #174, #4 ) ;
#134 = ORIENTED_EDGE ( 'NONE', *, *, #9, .F. ) ;
#135 = PRESENTATION_LAYER_ASSIGNMENT (  '', '', ( #75 ) ) ;
#136 = VERTEX_POINT ( 'NONE', #62 ) ;
#137 = ORIENTED_EDGE ( 'NONE', *, *, #35, .F. ) ;
#138 = MECHANICAL_DESIGN_GEOMETRIC_PRESENTATION_REPRESENTATION (  '', ( #46 ), #96 ) ;
#139 = FACE_OUTER_BOUND ( 'NONE', #56, .T. ) ;
#140 = FACE_OUTER_BOUND ( 'NONE', #221, .T. ) ;
#141 = FILL_AREA_STYLE_COLOUR ( '', #126 ) ;
#142 = CARTESIAN_POINT ( 'NONE',  ( 0.000000000000000000, 1.347399999999999931, 0.000000000000000000 ) ) ;
#143 = DIRECTION ( 'NONE',  ( 0.000000000000000000, 0.000000000000000000, 1.000000000000000000 ) ) ;
#144 = DIRECTION ( 'NONE',  ( 0.000000000000000000, -0.000000000000000000, 1.000000000000000000 ) ) ;
#145 =( LENGTH_UNIT ( ) NAMED_UNIT ( * ) SI_UNIT ( $, .METRE. ) );
#146 = APPLICATION_PROTOCOL_DEFINITION ( 'draft international standard', 'automotive_design', 1998, #43 ) ;
#147 = CARTESIAN_POINT ( 'NONE',  ( 0.000000000000000000, 1.347399999999999931, 0.000000000000000000 ) ) ;
#148 = VECTOR ( 'NONE', #91, 39.37007874015748143 ) ;
#149 = CARTESIAN_POINT ( 'NONE',  ( 0.000000000000000000, 0.000000000000000000, 0.000000000000000000 ) ) ;
#150 = ADVANCED_FACE ( 'NONE', ( #198 ), #159, .T. ) ;
#151 = VERTEX_POINT ( 'NONE', #130 ) ;
#152 = DIRECTION ( 'NONE',  ( 0.000000000000000000, 1.000000000000000000, 0.000000000000000000 ) ) ;
#153 = CARTESIAN_POINT ( 'NONE',  ( 0.000000000000000000, 1.347399999999999931, 0.000000000000000000 ) ) ;
#154 = EDGE_CURVE ( 'NONE', #188, #119, #42, .T. ) ;
#155 = DIRECTION ( 'NONE',  ( 0.000000000000000000, 1.000000000000000000, 0.000000000000000000 ) ) ;
#156 = EDGE_CURVE ( 'NONE', #188, #151, #76, .T. ) ;
#157 = DIRECTION ( 'NONE',  ( -0.000000000000000000, -1.000000000000000000, -0.000000000000000000 ) ) ;
#158 = PRODUCT ( 'am-4764 4IN BB Mecanum Axle Sleeve', 'am-4764 4IN BB Mecanum Axle Sleeve', '', ( #121 ) ) ;
#159 = CYLINDRICAL_SURFACE ( 'NONE', #164, 0.09375000000000001388 ) ;
#160 = EDGE_CURVE ( 'NONE', #151, #188, #6, .T. ) ;
#161 =( CONVERSION_BASED_UNIT ( 'INCH', #17 ) LENGTH_UNIT ( ) NAMED_UNIT ( #209 ) );
#162 = DIRECTION ( 'NONE',  ( 0.000000000000000000, 1.000000000000000000, 0.000000000000000000 ) ) ;
#163 = AXIS2_PLACEMENT_3D ( 'NONE', #80, #28, #116 ) ;
#164 = AXIS2_PLACEMENT_3D ( 'NONE', #142, #78, #218 ) ;
#165 = EDGE_CURVE ( 'NONE', #190, #132, #183, .T. ) ;
#166 =( NAMED_UNIT ( * ) SI_UNIT ( $, .STERADIAN. ) SOLID_ANGLE_UNIT ( ) );
#167 = PLANE ( 'NONE',  #133 ) ;
#168 = ORIENTED_EDGE ( 'NONE', *, *, #186, .T. ) ;
#169 = ORIENTED_EDGE ( 'NONE', *, *, #165, .F. ) ;
#170 = AXIS2_PLACEMENT_3D ( 'NONE', #219, #217, #61 ) ;
#171 = DIMENSIONAL_EXPONENTS ( 1.000000000000000000, 0.000000000000000000, 0.000000000000000000, 0.000000000000000000, 0.000000000000000000, 0.000000000000000000, 0.000000000000000000 ) ;
#172 = ADVANCED_FACE ( 'NONE', ( #140, #178 ), #215, .T. ) ;
#173 = CARTESIAN_POINT ( 'NONE',  ( 0.000000000000000000, 0.000000000000000000, 0.000000000000000000 ) ) ;
#174 = DIRECTION ( 'NONE',  ( 0.000000000000000000, 1.000000000000000000, 0.000000000000000000 ) ) ;
#175 = DIRECTION ( 'NONE',  ( 0.000000000000000000, 0.000000000000000000, -1.000000000000000000 ) ) ;
#176 = PRESENTATION_LAYER_ASSIGNMENT (  '', '', ( #46 ) ) ;
#177 = UNCERTAINTY_MEASURE_WITH_UNIT (LENGTH_MEASURE( 1.000000000000000082E-05 ), #95, 'distance_accuracy_value', 'NONE');
#178 = FACE_BOUND ( 'NONE', #89, .T. ) ;
#179 = AXIS2_PLACEMENT_3D ( 'NONE', #153, #5, #175 ) ;
#180 =( LENGTH_UNIT ( ) NAMED_UNIT ( * ) SI_UNIT ( $, .METRE. ) );
#181 = DIRECTION ( 'NONE',  ( 0.000000000000000000, 0.000000000000000000, -1.000000000000000000 ) ) ;
#182 = CARTESIAN_POINT ( 'NONE',  ( 1.148106374200643863E-17, 1.347399999999999931, 0.09375000000000001388 ) ) ;
#183 = LINE ( 'NONE', #110, #67 ) ;
#184 = ORIENTED_EDGE ( 'NONE', *, *, #156, .F. ) ;
#185 =( NAMED_UNIT ( * ) PLANE_ANGLE_UNIT ( ) SI_UNIT ( $, .RADIAN. ) );
#186 = EDGE_CURVE ( 'NONE', #132, #136, #197, .T. ) ;
#187 = DIRECTION ( 'NONE',  ( 0.000000000000000000, 0.000000000000000000, 1.000000000000000000 ) ) ;
#188 = VERTEX_POINT ( 'NONE', #182 ) ;
#189 = FILL_AREA_STYLE ('',( #205 ) ) ;
#190 = VERTEX_POINT ( 'NONE', #97 ) ;
#191 = MECHANICAL_DESIGN_GEOMETRIC_PRESENTATION_REPRESENTATION (  '', ( #75 ), #29 ) ;
#192 = EDGE_LOOP ( 'NONE', ( #18, #168 ) ) ;
#193 = DIMENSIONAL_EXPONENTS ( 1.000000000000000000, 0.000000000000000000, 0.000000000000000000, 0.000000000000000000, 0.000000000000000000, 0.000000000000000000, 0.000000000000000000 ) ;
#194 = DIRECTION ( 'NONE',  ( 0.000000000000000000, 0.000000000000000000, -1.000000000000000000 ) ) ;
#195 = CIRCLE ( 'NONE', #94, 0.06149999999999998523 ) ;
#196 = DIRECTION ( 'NONE',  ( 0.000000000000000000, 0.000000000000000000, 1.000000000000000000 ) ) ;
#197 = CIRCLE ( 'NONE', #163, 0.06149999999999998523 ) ;
#198 = FACE_OUTER_BOUND ( 'NONE', #85, .T. ) ;
#199 = CIRCLE ( 'NONE', #77, 0.09375000000000001388 ) ;
#200 = CARTESIAN_POINT ( 'NONE',  ( 0.000000000000000000, 1.347399999999999931, 0.000000000000000000 ) ) ;
#201 = ADVANCED_FACE ( 'NONE', ( #10 ), #202, .T. ) ;
#202 = CYLINDRICAL_SURFACE ( 'NONE', #212, 0.09375000000000001388 ) ;
#203 = EDGE_LOOP ( 'NONE', ( #184, #104, #120, #19 ) ) ;
#204 = ORIENTED_EDGE ( 'NONE', *, *, #83, .F. ) ;
#205 = FILL_AREA_STYLE_COLOUR ( '', #25 ) ;
#206 = ORIENTED_EDGE ( 'NONE', *, *, #156, .T. ) ;
#207 = SURFACE_STYLE_FILL_AREA ( #189 ) ;
#208 = ORIENTED_EDGE ( 'NONE', *, *, #160, .T. ) ;
#209 = DIMENSIONAL_EXPONENTS ( 1.000000000000000000, 0.000000000000000000, 0.000000000000000000, 0.000000000000000000, 0.000000000000000000, 0.000000000000000000, 0.000000000000000000 ) ;
#210 = VERTEX_POINT ( 'NONE', #81 ) ;
#211 = EDGE_CURVE ( 'NONE', #136, #132, #112, .T. ) ;
#212 = AXIS2_PLACEMENT_3D ( 'NONE', #26, #93, #181 ) ;
#213 = MANIFOLD_SOLID_BREP ( 'Boss-Extrude1', #222 ) ;
#214 = PRODUCT_DEFINITION_CONTEXT ( 'detailed design', #92, 'design' ) ;
#215 = PLANE ( 'NONE',  #84 ) ;
#216 = PRESENTATION_STYLE_ASSIGNMENT (( #128 ) ) ;
#217 = DIRECTION ( 'NONE',  ( 0.000000000000000000, 1.000000000000000000, 0.000000000000000000 ) ) ;
#218 = DIRECTION ( 'NONE',  ( 0.000000000000000000, 0.000000000000000000, -1.000000000000000000 ) ) ;
#219 = CARTESIAN_POINT ( 'NONE',  ( 0.000000000000000000, 0.000000000000000000, 0.000000000000000000 ) ) ;
#220 = AXIS2_PLACEMENT_3D ( 'NONE', #54, #2, #52 ) ;
#221 = EDGE_LOOP ( 'NONE', ( #208, #206 ) ) ;
#222 = CLOSED_SHELL ( 'NONE', ( #109, #201, #172, #44, #150, #50 ) ) ;
#223 = ORIENTED_EDGE ( 'NONE', *, *, #23, .F. ) ;
ENDSEC;
END-ISO-10303-21;
