ISO-10303-21;
HEADER;
FILE_DESCRIPTION (( 'STEP AP214' ),
    '1' );
FILE_NAME ('am-1701 10-32 Female Threaded 1 in. Long 0.375 in. Round Standoff.STEP',
    '2023-07-26T15:32:07',
    ( '' ),
    ( '' ),
    'SwSTEP 2.0',
    'SolidWorks 2022',
    '' );
FILE_SCHEMA (( 'AUTOMOTIVE_DESIGN' ));
ENDSEC;

DATA;
#1 = FACE_OUTER_BOUND ( 'NONE', #113, .T. ) ;
#2 = CLOSED_SHELL ( 'NONE', ( #186, #240, #80, #182, #221, #176 ) ) ;
#3 = CYLINDRICAL_SURFACE ( 'NONE', #22, 0.1874999999999999722 ) ;
#4 = CARTESIAN_POINT ( 'NONE',  ( 0.000000000000000000, 1.000000000000000000, 0.07949999999999958489 ) ) ;
#5 =( GEOMETRIC_REPRESENTATION_CONTEXT ( 3 ) GLOBAL_UNCERTAINTY_ASSIGNED_CONTEXT ( ( #244 ) ) GLOBAL_UNIT_ASSIGNED_CONTEXT ( ( #212, #47, #233 ) ) REPRESENTATION_CONTEXT ( 'NONE', 'WORKASPACE' ) );
#6 = FACE_BOUND ( 'NONE', #197, .T. ) ;
#7 =( NAMED_UNIT ( * ) SI_UNIT ( $, .STERADIAN. ) SOLID_ANGLE_UNIT ( ) );
#8 = DIRECTION ( 'NONE',  ( 0.000000000000000000, 0.000000000000000000, 1.000000000000000000 ) ) ;
#9 = ORIENTED_EDGE ( 'NONE', *, *, #235, .F. ) ;
#10 = LENGTH_MEASURE_WITH_UNIT ( LENGTH_MEASURE( 0.02539999999999999897 ), #110 );
#11 = VECTOR ( 'NONE', #32, 39.37007874015748143 ) ;
#12 = LENGTH_MEASURE_WITH_UNIT ( LENGTH_MEASURE( 0.02539999999999999897 ), #217 );
#13 = PRODUCT_CONTEXT ( 'NONE', #105, 'mechanical' ) ;
#14 = CARTESIAN_POINT ( 'NONE',  ( 0.000000000000000000, 1.000000000000000000, 0.000000000000000000 ) ) ;
#15 = SHAPE_DEFINITION_REPRESENTATION ( #123, #107 ) ;
#16 = LINE ( 'NONE', #94, #88 ) ;
#17 = DIRECTION ( 'NONE',  ( 0.000000000000000000, 1.000000000000000000, 0.000000000000000000 ) ) ;
#18 = EDGE_LOOP ( 'NONE', ( #77, #172, #174, #26 ) ) ;
#19 = AXIS2_PLACEMENT_3D ( 'NONE', #205, #141, #245 ) ;
#20 = LENGTH_MEASURE_WITH_UNIT ( LENGTH_MEASURE( 0.02539999999999999897 ), #204 );
#21 = FACE_OUTER_BOUND ( 'NONE', #220, .T. ) ;
#22 = AXIS2_PLACEMENT_3D ( 'NONE', #31, #73, #34 ) ;
#23 = VECTOR ( 'NONE', #200, 39.37007874015748143 ) ;
#24 = CARTESIAN_POINT ( 'NONE',  ( 0.000000000000000000, 1.000000000000000000, -0.1874999999999999722 ) ) ;
#25 =( NAMED_UNIT ( * ) PLANE_ANGLE_UNIT ( ) SI_UNIT ( $, .RADIAN. ) );
#26 = ORIENTED_EDGE ( 'NONE', *, *, #91, .F. ) ;
#27 = SURFACE_STYLE_USAGE ( .BOTH. , #250 ) ;
#28 = CIRCLE ( 'NONE', #178, 0.1874999999999999722 ) ;
#29 = UNCERTAINTY_MEASURE_WITH_UNIT (LENGTH_MEASURE( 1.000000000000000082E-05 ), #81, 'distance_accuracy_value', 'NONE');
#30 = VERTEX_POINT ( 'NONE', #242 ) ;
#31 = CARTESIAN_POINT ( 'NONE',  ( 0.000000000000000000, 1.000000000000000000, 0.000000000000000000 ) ) ;
#32 = DIRECTION ( 'NONE',  ( -0.000000000000000000, -1.000000000000000000, -0.000000000000000000 ) ) ;
#33 = DIRECTION ( 'NONE',  ( 0.000000000000000000, 0.000000000000000000, -1.000000000000000000 ) ) ;
#34 = DIRECTION ( 'NONE',  ( 0.000000000000000000, 0.000000000000000000, -1.000000000000000000 ) ) ;
#35 = SURFACE_SIDE_STYLE ('',( #159 ) ) ;
#36 = AXIS2_PLACEMENT_3D ( 'NONE', #154, #131, #136 ) ;
#37 = CARTESIAN_POINT ( 'NONE',  ( 0.000000000000000000, 1.000000000000000000, 0.000000000000000000 ) ) ;
#38 = CARTESIAN_POINT ( 'NONE',  ( 0.000000000000000000, 1.000000000000000000, 0.000000000000000000 ) ) ;
#39 = DIRECTION ( 'NONE',  ( 0.000000000000000000, -0.000000000000000000, 1.000000000000000000 ) ) ;
#40 = MECHANICAL_DESIGN_GEOMETRIC_PRESENTATION_REPRESENTATION (  '', ( #44 ), #134 ) ;
#41 = DIRECTION ( 'NONE',  ( 0.000000000000000000, 0.000000000000000000, 1.000000000000000000 ) ) ;
#42 = CARTESIAN_POINT ( 'NONE',  ( 0.000000000000000000, 1.000000000000000000, 0.000000000000000000 ) ) ;
#43 = EDGE_CURVE ( 'NONE', #199, #239, #222, .T. ) ;
#44 = STYLED_ITEM ( 'NONE', ( #62 ), #186 ) ;
#45 = STYLED_ITEM ( 'NONE', ( #67 ), #107 ) ;
#46 = SURFACE_STYLE_FILL_AREA ( #254 ) ;
#47 =( NAMED_UNIT ( * ) PLANE_ANGLE_UNIT ( ) SI_UNIT ( $, .RADIAN. ) );
#48 = ORIENTED_EDGE ( 'NONE', *, *, #89, .F. ) ;
#49 = AXIS2_PLACEMENT_3D ( 'NONE', #140, #230, #39 ) ;
#50 = ORIENTED_EDGE ( 'NONE', *, *, #104, .F. ) ;
#51 = ORIENTED_EDGE ( 'NONE', *, *, #209, .F. ) ;
#52 = DIRECTION ( 'NONE',  ( 0.000000000000000000, 0.000000000000000000, 1.000000000000000000 ) ) ;
#53 = LINE ( 'NONE', #181, #23 ) ;
#54 = PRODUCT_DEFINITION_FORMATION_WITH_SPECIFIED_SOURCE ( 'ANY', '', #142, .NOT_KNOWN. ) ;
#55 = FILL_AREA_STYLE_COLOUR ( '', #63 ) ;
#56 = PLANE ( 'NONE',  #49 ) ;
#57 = PRESENTATION_LAYER_ASSIGNMENT (  '', '', ( #223 ) ) ;
#58 = AXIS2_PLACEMENT_3D ( 'NONE', #74, #52, #175 ) ;
#59 = CARTESIAN_POINT ( 'NONE',  ( 0.000000000000000000, 1.000000000000000000, 0.000000000000000000 ) ) ;
#60 =( NAMED_UNIT ( * ) SI_UNIT ( $, .STERADIAN. ) SOLID_ANGLE_UNIT ( ) );
#61 =( LENGTH_UNIT ( ) NAMED_UNIT ( * ) SI_UNIT ( $, .METRE. ) );
#62 = PRESENTATION_STYLE_ASSIGNMENT (( #211 ) ) ;
#63 = COLOUR_RGB ( '',0.8980392156862745390, 0.9176470588235293713, 0.9294117647058823817 ) ;
#64 = DIRECTION ( 'NONE',  ( 0.000000000000000000, 0.000000000000000000, 1.000000000000000000 ) ) ;
#65 = CARTESIAN_POINT ( 'NONE',  ( 2.296212748401286801E-17, 0.000000000000000000, 0.1874999999999999722 ) ) ;
#66 = CIRCLE ( 'NONE', #156, 0.1874999999999999722 ) ;
#67 = PRESENTATION_STYLE_ASSIGNMENT (( #111 ) ) ;
#68 = VERTEX_POINT ( 'NONE', #258 ) ;
#69 = PRESENTATION_LAYER_ASSIGNMENT (  '', '', ( #78 ) ) ;
#70 = COLOUR_RGB ( '',0.8980392156862745390, 0.9176470588235293713, 0.9294117647058823817 ) ;
#71 = ORIENTED_EDGE ( 'NONE', *, *, #235, .T. ) ;
#72 = APPLICATION_PROTOCOL_DEFINITION ( 'draft international standard', 'automotive_design', 1998, #192 ) ;
#73 = DIRECTION ( 'NONE',  ( -0.000000000000000000, -1.000000000000000000, -0.000000000000000000 ) ) ;
#74 = CARTESIAN_POINT ( 'NONE',  ( 0.000000000000000000, 0.000000000000000000, 0.000000000000000000 ) ) ;
#75 = EDGE_LOOP ( 'NONE', ( #109, #256, #90, #127 ) ) ;
#76 = UNCERTAINTY_MEASURE_WITH_UNIT (LENGTH_MEASURE( 1.000000000000000082E-05 ), #241, 'distance_accuracy_value', 'NONE');
#77 = ORIENTED_EDGE ( 'NONE', *, *, #89, .T. ) ;
#78 = STYLED_ITEM ( 'NONE', ( #198 ), #251 ) ;
#79 = PRESENTATION_STYLE_ASSIGNMENT (( #185 ) ) ;
#80 = ADVANCED_FACE ( 'NONE', ( #118 ), #3, .T. ) ;
#81 =( CONVERSION_BASED_UNIT ( 'INCH', #164 ) LENGTH_UNIT ( ) NAMED_UNIT ( #125 ) );
#82 = PLANE ( 'NONE',  #148 ) ;
#83 = CIRCLE ( 'NONE', #144, 0.07949999999999994571 ) ;
#84 = FILL_AREA_STYLE ('',( #149 ) ) ;
#85 = DIRECTION ( 'NONE',  ( -0.000000000000000000, -1.000000000000000000, -0.000000000000000000 ) ) ;
#86 = PRODUCT_DEFINITION ( 'UNKNOWN', '', #54, #138 ) ;
#87 = ORIENTED_EDGE ( 'NONE', *, *, #191, .F. ) ;
#88 = VECTOR ( 'NONE', #224, 39.37007874015748143 ) ;
#89 = EDGE_CURVE ( 'NONE', #234, #30, #83, .T. ) ;
#90 = ORIENTED_EDGE ( 'NONE', *, *, #209, .T. ) ;
#91 = EDGE_CURVE ( 'NONE', #234, #180, #53, .T. ) ;
#92 = EDGE_LOOP ( 'NONE', ( #9, #152, #215, #51 ) ) ;
#93 = UNCERTAINTY_MEASURE_WITH_UNIT (LENGTH_MEASURE( 1.000000000000000082E-05 ), #171, 'distance_accuracy_value', 'NONE');
#94 = CARTESIAN_POINT ( 'NONE',  ( 9.735942053221399461E-18, 1.000000000000000000, -0.07949999999999951550 ) ) ;
#95 = DIRECTION ( 'NONE',  ( -0.000000000000000000, -1.000000000000000000, -0.000000000000000000 ) ) ;
#96 = CIRCLE ( 'NONE', #36, 0.07949999999999958489 ) ;
#97 = ORIENTED_EDGE ( 'NONE', *, *, #108, .F. ) ;
#98 =( GEOMETRIC_REPRESENTATION_CONTEXT ( 3 ) GLOBAL_UNCERTAINTY_ASSIGNED_CONTEXT ( ( #76 ) ) GLOBAL_UNIT_ASSIGNED_CONTEXT ( ( #241, #179, #60 ) ) REPRESENTATION_CONTEXT ( 'NONE', 'WORKASPACE' ) );
#99 = FACE_OUTER_BOUND ( 'NONE', #18, .T. ) ;
#100 = CARTESIAN_POINT ( 'NONE',  ( 0.000000000000000000, 1.000000000000000000, 0.000000000000000000 ) ) ;
#101 = CYLINDRICAL_SURFACE ( 'NONE', #161, 0.07949999999999951550 ) ;
#102 =( GEOMETRIC_REPRESENTATION_CONTEXT ( 3 ) GLOBAL_UNCERTAINTY_ASSIGNED_CONTEXT ( ( #132 ) ) GLOBAL_UNIT_ASSIGNED_CONTEXT ( ( #177, #231, #7 ) ) REPRESENTATION_CONTEXT ( 'NONE', 'WORKASPACE' ) );
#103 = DIMENSIONAL_EXPONENTS ( 1.000000000000000000, 0.000000000000000000, 0.000000000000000000, 0.000000000000000000, 0.000000000000000000, 0.000000000000000000, 0.000000000000000000 ) ;
#104 = EDGE_CURVE ( 'NONE', #68, #180, #96, .T. ) ;
#105 = APPLICATION_CONTEXT ( 'automotive_design' ) ;
#106 = DIRECTION ( 'NONE',  ( -0.000000000000000000, 1.000000000000000000, -0.000000000000000000 ) ) ;
#107 = ADVANCED_BREP_SHAPE_REPRESENTATION ( 'am-1701 10-32 Female Threaded 1 in. Long 0.375 in. Round Standoff', ( #251, #58 ), #135 ) ;
#108 = EDGE_CURVE ( 'NONE', #137, #239, #28, .T. ) ;
#109 = ORIENTED_EDGE ( 'NONE', *, *, #43, .F. ) ;
#110 =( LENGTH_UNIT ( ) NAMED_UNIT ( * ) SI_UNIT ( $, .METRE. ) );
#111 = SURFACE_STYLE_USAGE ( .BOTH. , #216 ) ;
#112 = ORIENTED_EDGE ( 'NONE', *, *, #166, .T. ) ;
#113 = EDGE_LOOP ( 'NONE', ( #255, #112, #219, #151 ) ) ;
#114 = DIRECTION ( 'NONE',  ( 0.000000000000000000, 0.000000000000000000, 1.000000000000000000 ) ) ;
#115 = CIRCLE ( 'NONE', #247, 0.07949999999999958489 ) ;
#116 = PRODUCT_RELATED_PRODUCT_CATEGORY ( 'part', '', ( #142 ) ) ;
#117 = CARTESIAN_POINT ( 'NONE',  ( 0.000000000000000000, 0.000000000000000000, -0.1874999999999999722 ) ) ;
#118 = FACE_OUTER_BOUND ( 'NONE', #75, .T. ) ;
#119 = DIRECTION ( 'NONE',  ( 0.000000000000000000, 0.000000000000000000, 1.000000000000000000 ) ) ;
#120 = DIRECTION ( 'NONE',  ( -0.000000000000000000, -1.000000000000000000, -0.000000000000000000 ) ) ;
#121 = LINE ( 'NONE', #246, #257 ) ;
#122 = CARTESIAN_POINT ( 'NONE',  ( 0.000000000000000000, 1.408343819019458848E-18, 0.07949999999999994571 ) ) ;
#123 = PRODUCT_DEFINITION_SHAPE ( 'NONE', 'NONE',  #86 ) ;
#124 = DIRECTION ( 'NONE',  ( 0.000000000000000000, -0.000000000000000000, 1.000000000000000000 ) ) ;
#125 = DIMENSIONAL_EXPONENTS ( 1.000000000000000000, 0.000000000000000000, 0.000000000000000000, 0.000000000000000000, 0.000000000000000000, 0.000000000000000000, 0.000000000000000000 ) ;
#126 = FILL_AREA_STYLE_COLOUR ( '', #207 ) ;
#127 = ORIENTED_EDGE ( 'NONE', *, *, #108, .T. ) ;
#128 = SURFACE_STYLE_FILL_AREA ( #84 ) ;
#129 = CIRCLE ( 'NONE', #19, 0.1874999999999999722 ) ;
#130 = EDGE_LOOP ( 'NONE', ( #48, #236 ) ) ;
#131 = DIRECTION ( 'NONE',  ( -0.000000000000000000, 1.000000000000000000, -0.000000000000000000 ) ) ;
#132 = UNCERTAINTY_MEASURE_WITH_UNIT (LENGTH_MEASURE( 1.000000000000000082E-05 ), #177, 'distance_accuracy_value', 'NONE');
#133 = ORIENTED_EDGE ( 'NONE', *, *, #155, .T. ) ;
#134 =( GEOMETRIC_REPRESENTATION_CONTEXT ( 3 ) GLOBAL_UNCERTAINTY_ASSIGNED_CONTEXT ( ( #29 ) ) GLOBAL_UNIT_ASSIGNED_CONTEXT ( ( #81, #165, #229 ) ) REPRESENTATION_CONTEXT ( 'NONE', 'WORKASPACE' ) );
#135 =( GEOMETRIC_REPRESENTATION_CONTEXT ( 3 ) GLOBAL_UNCERTAINTY_ASSIGNED_CONTEXT ( ( #93 ) ) GLOBAL_UNIT_ASSIGNED_CONTEXT ( ( #171, #25, #150 ) ) REPRESENTATION_CONTEXT ( 'NONE', 'WORKASPACE' ) );
#136 = DIRECTION ( 'NONE',  ( 0.000000000000000000, 0.000000000000000000, 1.000000000000000000 ) ) ;
#137 = VERTEX_POINT ( 'NONE', #117 ) ;
#138 = PRODUCT_DEFINITION_CONTEXT ( 'detailed design', #192, 'design' ) ;
#139 = MECHANICAL_DESIGN_GEOMETRIC_PRESENTATION_REPRESENTATION (  '', ( #223 ), #102 ) ;
#140 = CARTESIAN_POINT ( 'NONE',  ( 0.000000000000000000, 0.000000000000000000, 0.000000000000000000 ) ) ;
#141 = DIRECTION ( 'NONE',  ( 0.000000000000000000, 1.000000000000000000, 0.000000000000000000 ) ) ;
#142 = PRODUCT ( 'am-1701 10-32 Female Threaded 1 in. Long 0.375 in. Round Standoff', 'am-1701 10-32 Female Threaded 1 in. Long 0.375 in. Round Standoff', '', ( #13 ) ) ;
#143 = FILL_AREA_STYLE ('',( #167 ) ) ;
#144 = AXIS2_PLACEMENT_3D ( 'NONE', #259, #120, #33 ) ;
#145 = DIRECTION ( 'NONE',  ( -0.000000000000000000, -1.000000000000000000, -0.000000000000000000 ) ) ;
#146 = LENGTH_MEASURE_WITH_UNIT ( LENGTH_MEASURE( 0.02539999999999999897 ), #249 );
#147 = DIRECTION ( 'NONE',  ( 0.000000000000000000, 1.000000000000000000, 0.000000000000000000 ) ) ;
#148 = AXIS2_PLACEMENT_3D ( 'NONE', #100, #162, #124 ) ;
#149 = FILL_AREA_STYLE_COLOUR ( '', #70 ) ;
#150 =( NAMED_UNIT ( * ) SI_UNIT ( $, .STERADIAN. ) SOLID_ANGLE_UNIT ( ) );
#151 = ORIENTED_EDGE ( 'NONE', *, *, #191, .T. ) ;
#152 = ORIENTED_EDGE ( 'NONE', *, *, #43, .T. ) ;
#153 = ORIENTED_EDGE ( 'NONE', *, *, #214, .F. ) ;
#154 = CARTESIAN_POINT ( 'NONE',  ( 0.000000000000000000, 1.000000000000000000, 0.000000000000000000 ) ) ;
#155 = EDGE_CURVE ( 'NONE', #253, #199, #66, .T. ) ;
#156 = AXIS2_PLACEMENT_3D ( 'NONE', #14, #201, #119 ) ;
#157 = PRESENTATION_LAYER_ASSIGNMENT (  '', '', ( #45 ) ) ;
#158 = DIRECTION ( 'NONE',  ( 0.000000000000000000, 0.000000000000000000, -1.000000000000000000 ) ) ;
#159 = SURFACE_STYLE_FILL_AREA ( #203 ) ;
#160 = CARTESIAN_POINT ( 'NONE',  ( 2.296212748401286801E-17, 1.000000000000000000, 0.1874999999999999722 ) ) ;
#161 = AXIS2_PLACEMENT_3D ( 'NONE', #38, #106, #193 ) ;
#162 = DIRECTION ( 'NONE',  ( 0.000000000000000000, 1.000000000000000000, 0.000000000000000000 ) ) ;
#163 = EDGE_CURVE ( 'NONE', #30, #68, #16, .T. ) ;
#164 = LENGTH_MEASURE_WITH_UNIT ( LENGTH_MEASURE( 0.02539999999999999897 ), #61 );
#165 =( NAMED_UNIT ( * ) PLANE_ANGLE_UNIT ( ) SI_UNIT ( $, .RADIAN. ) );
#166 = EDGE_CURVE ( 'NONE', #30, #234, #226, .T. ) ;
#167 = FILL_AREA_STYLE_COLOUR ( '', #252 ) ;
#168 = CIRCLE ( 'NONE', #188, 0.1874999999999999722 ) ;
#169 = CYLINDRICAL_SURFACE ( 'NONE', #195, 0.1874999999999999722 ) ;
#170 = FACE_OUTER_BOUND ( 'NONE', #92, .T. ) ;
#171 =( CONVERSION_BASED_UNIT ( 'INCH', #10 ) LENGTH_UNIT ( ) NAMED_UNIT ( #103 ) );
#172 = ORIENTED_EDGE ( 'NONE', *, *, #163, .T. ) ;
#173 = MECHANICAL_DESIGN_GEOMETRIC_PRESENTATION_REPRESENTATION (  '', ( #45 ), #98 ) ;
#174 = ORIENTED_EDGE ( 'NONE', *, *, #104, .T. ) ;
#175 = DIRECTION ( 'NONE',  ( 1.000000000000000000, 0.000000000000000000, 0.000000000000000000 ) ) ;
#176 = ADVANCED_FACE ( 'NONE', ( #1 ), #243, .F. ) ;
#177 =( CONVERSION_BASED_UNIT ( 'INCH', #20 ) LENGTH_UNIT ( ) NAMED_UNIT ( #187 ) );
#178 = AXIS2_PLACEMENT_3D ( 'NONE', #202, #17, #114 ) ;
#179 =( NAMED_UNIT ( * ) PLANE_ANGLE_UNIT ( ) SI_UNIT ( $, .RADIAN. ) );
#180 = VERTEX_POINT ( 'NONE', #4 ) ;
#181 = CARTESIAN_POINT ( 'NONE',  ( 0.000000000000000000, 1.000000000000000000, 0.07949999999999951550 ) ) ;
#182 = ADVANCED_FACE ( 'NONE', ( #6, #190 ), #82, .T. ) ;
#183 = CARTESIAN_POINT ( 'NONE',  ( 2.296212748401286801E-17, 1.000000000000000000, 0.1874999999999999722 ) ) ;
#184 = AXIS2_PLACEMENT_3D ( 'NONE', #37, #189, #41 ) ;
#185 = SURFACE_STYLE_USAGE ( .BOTH. , #35 ) ;
#186 = ADVANCED_FACE ( 'NONE', ( #99 ), #101, .F. ) ;
#187 = DIMENSIONAL_EXPONENTS ( 1.000000000000000000, 0.000000000000000000, 0.000000000000000000, 0.000000000000000000, 0.000000000000000000, 0.000000000000000000, 0.000000000000000000 ) ;
#188 = AXIS2_PLACEMENT_3D ( 'NONE', #208, #147, #8 ) ;
#189 = DIRECTION ( 'NONE',  ( -0.000000000000000000, 1.000000000000000000, -0.000000000000000000 ) ) ;
#190 = FACE_OUTER_BOUND ( 'NONE', #238, .T. ) ;
#191 = EDGE_CURVE ( 'NONE', #180, #68, #115, .T. ) ;
#192 = APPLICATION_CONTEXT ( 'automotive_design' ) ;
#193 = DIRECTION ( 'NONE',  ( 0.000000000000000000, 0.000000000000000000, 1.000000000000000000 ) ) ;
#194 = DIRECTION ( 'NONE',  ( 0.000000000000000000, 0.000000000000000000, -1.000000000000000000 ) ) ;
#195 = AXIS2_PLACEMENT_3D ( 'NONE', #42, #85, #194 ) ;
#196 = APPLICATION_PROTOCOL_DEFINITION ( 'draft international standard', 'automotive_design', 1998, #105 ) ;
#197 = EDGE_LOOP ( 'NONE', ( #87, #50 ) ) ;
#198 = PRESENTATION_STYLE_ASSIGNMENT (( #27 ) ) ;
#199 = VERTEX_POINT ( 'NONE', #160 ) ;
#200 = DIRECTION ( 'NONE',  ( -0.000000000000000000, 1.000000000000000000, -0.000000000000000000 ) ) ;
#201 = DIRECTION ( 'NONE',  ( 0.000000000000000000, 1.000000000000000000, 0.000000000000000000 ) ) ;
#202 = CARTESIAN_POINT ( 'NONE',  ( 0.000000000000000000, 0.000000000000000000, 0.000000000000000000 ) ) ;
#203 = FILL_AREA_STYLE ('',( #55 ) ) ;
#204 =( LENGTH_UNIT ( ) NAMED_UNIT ( * ) SI_UNIT ( $, .METRE. ) );
#205 = CARTESIAN_POINT ( 'NONE',  ( 0.000000000000000000, 0.000000000000000000, 0.000000000000000000 ) ) ;
#206 = SURFACE_SIDE_STYLE ('',( #248 ) ) ;
#207 = COLOUR_RGB ( '',0.8980392156862745390, 0.9176470588235293713, 0.9294117647058823817 ) ;
#208 = CARTESIAN_POINT ( 'NONE',  ( 0.000000000000000000, 1.000000000000000000, 0.000000000000000000 ) ) ;
#209 = EDGE_CURVE ( 'NONE', #253, #137, #121, .T. ) ;
#210 = DIMENSIONAL_EXPONENTS ( 1.000000000000000000, 0.000000000000000000, 0.000000000000000000, 0.000000000000000000, 0.000000000000000000, 0.000000000000000000, 0.000000000000000000 ) ;
#211 = SURFACE_STYLE_USAGE ( .BOTH. , #206 ) ;
#212 =( CONVERSION_BASED_UNIT ( 'INCH', #146 ) LENGTH_UNIT ( ) NAMED_UNIT ( #210 ) );
#213 = AXIS2_PLACEMENT_3D ( 'NONE', #225, #95, #158 ) ;
#214 = EDGE_CURVE ( 'NONE', #239, #137, #129, .T. ) ;
#215 = ORIENTED_EDGE ( 'NONE', *, *, #214, .T. ) ;
#216 = SURFACE_SIDE_STYLE ('',( #128 ) ) ;
#217 =( LENGTH_UNIT ( ) NAMED_UNIT ( * ) SI_UNIT ( $, .METRE. ) );
#218 = PRESENTATION_LAYER_ASSIGNMENT (  '', '', ( #44 ) ) ;
#219 = ORIENTED_EDGE ( 'NONE', *, *, #91, .T. ) ;
#220 = EDGE_LOOP ( 'NONE', ( #97, #153 ) ) ;
#221 = ADVANCED_FACE ( 'NONE', ( #232, #21 ), #56, .F. ) ;
#222 = LINE ( 'NONE', #183, #11 ) ;
#223 = STYLED_ITEM ( 'NONE', ( #79 ), #176 ) ;
#224 = DIRECTION ( 'NONE',  ( -0.000000000000000000, 1.000000000000000000, -0.000000000000000000 ) ) ;
#225 = CARTESIAN_POINT ( 'NONE',  ( 0.000000000000000000, 1.408343819019458848E-18, 0.000000000000000000 ) ) ;
#226 = CIRCLE ( 'NONE', #213, 0.07949999999999994571 ) ;
#227 = DIRECTION ( 'NONE',  ( -0.000000000000000000, 1.000000000000000000, -0.000000000000000000 ) ) ;
#228 = DIMENSIONAL_EXPONENTS ( 1.000000000000000000, 0.000000000000000000, 0.000000000000000000, 0.000000000000000000, 0.000000000000000000, 0.000000000000000000, 0.000000000000000000 ) ;
#229 =( NAMED_UNIT ( * ) SI_UNIT ( $, .STERADIAN. ) SOLID_ANGLE_UNIT ( ) );
#230 = DIRECTION ( 'NONE',  ( 0.000000000000000000, 1.000000000000000000, 0.000000000000000000 ) ) ;
#231 =( NAMED_UNIT ( * ) PLANE_ANGLE_UNIT ( ) SI_UNIT ( $, .RADIAN. ) );
#232 = FACE_BOUND ( 'NONE', #130, .T. ) ;
#233 =( NAMED_UNIT ( * ) SI_UNIT ( $, .STERADIAN. ) SOLID_ANGLE_UNIT ( ) );
#234 = VERTEX_POINT ( 'NONE', #122 ) ;
#235 = EDGE_CURVE ( 'NONE', #199, #253, #168, .T. ) ;
#236 = ORIENTED_EDGE ( 'NONE', *, *, #166, .F. ) ;
#237 = MECHANICAL_DESIGN_GEOMETRIC_PRESENTATION_REPRESENTATION (  '', ( #78 ), #5 ) ;
#238 = EDGE_LOOP ( 'NONE', ( #133, #71 ) ) ;
#239 = VERTEX_POINT ( 'NONE', #65 ) ;
#240 = ADVANCED_FACE ( 'NONE', ( #170 ), #169, .T. ) ;
#241 =( CONVERSION_BASED_UNIT ( 'INCH', #12 ) LENGTH_UNIT ( ) NAMED_UNIT ( #228 ) );
#242 = CARTESIAN_POINT ( 'NONE',  ( 9.735942053221450306E-18, 1.408343819019458848E-18, -0.07949999999999994571 ) ) ;
#243 = CYLINDRICAL_SURFACE ( 'NONE', #184, 0.07949999999999951550 ) ;
#244 = UNCERTAINTY_MEASURE_WITH_UNIT (LENGTH_MEASURE( 1.000000000000000082E-05 ), #212, 'distance_accuracy_value', 'NONE');
#245 = DIRECTION ( 'NONE',  ( 0.000000000000000000, 0.000000000000000000, 1.000000000000000000 ) ) ;
#246 = CARTESIAN_POINT ( 'NONE',  ( 0.000000000000000000, 1.000000000000000000, -0.1874999999999999722 ) ) ;
#247 = AXIS2_PLACEMENT_3D ( 'NONE', #59, #227, #64 ) ;
#248 = SURFACE_STYLE_FILL_AREA ( #143 ) ;
#249 =( LENGTH_UNIT ( ) NAMED_UNIT ( * ) SI_UNIT ( $, .METRE. ) );
#250 = SURFACE_SIDE_STYLE ('',( #46 ) ) ;
#251 = MANIFOLD_SOLID_BREP ( '#10-32 Tapped Hole2', #2 ) ;
#252 = COLOUR_RGB ( '',0.8980392156862745390, 0.9176470588235293713, 0.9294117647058823817 ) ;
#253 = VERTEX_POINT ( 'NONE', #24 ) ;
#254 = FILL_AREA_STYLE ('',( #126 ) ) ;
#255 = ORIENTED_EDGE ( 'NONE', *, *, #163, .F. ) ;
#256 = ORIENTED_EDGE ( 'NONE', *, *, #155, .F. ) ;
#257 = VECTOR ( 'NONE', #145, 39.37007874015748143 ) ;
#258 = CARTESIAN_POINT ( 'NONE',  ( 9.735942053221408706E-18, 1.000000000000000000, -0.07949999999999958489 ) ) ;
#259 = CARTESIAN_POINT ( 'NONE',  ( 0.000000000000000000, 1.408343819019458848E-18, 0.000000000000000000 ) ) ;
ENDSEC;
END-ISO-10303-21;
