ISO-10303-21;
HEADER;
FILE_DESCRIPTION (( 'STEP AP214' ),
    '1' );
FILE_NAME ('am-1697 0.194 ID 0.375 OD 0.500 Long Nylon Spacer.STEP',
    '2023-07-26T19:39:51',
    ( '' ),
    ( '' ),
    'SwSTEP 2.0',
    'SolidWorks 2022',
    '' );
FILE_SCHEMA (( 'AUTOMOTIVE_DESIGN' ));
ENDSEC;

DATA;
#1 = AXIS2_PLACEMENT_3D ( 'NONE', #96, #174, #126 ) ;
#2 = CARTESIAN_POINT ( 'NONE',  ( 0.000000000000000000, 0.000000000000000000, 0.000000000000000000 ) ) ;
#3 = PRODUCT_DEFINITION ( 'UNKNOWN', '', #198, #220 ) ;
#4 = DIRECTION ( 'NONE',  ( 0.000000000000000000, 1.000000000000000000, 0.000000000000000000 ) ) ;
#5 = DIRECTION ( 'NONE',  ( 1.000000000000000000, 0.000000000000000000, 0.000000000000000000 ) ) ;
#6 = CARTESIAN_POINT ( 'NONE',  ( 0.000000000000000000, 0.5000000000000000000, -0.1875000000000000278 ) ) ;
#7 =( CONVERSION_BASED_UNIT ( 'INCH', #172 ) LENGTH_UNIT ( ) NAMED_UNIT ( #20 ) );
#8 = FACE_BOUND ( 'NONE', #69, .T. ) ;
#9 =( NAMED_UNIT ( * ) PLANE_ANGLE_UNIT ( ) SI_UNIT ( $, .RADIAN. ) );
#10 = AXIS2_PLACEMENT_3D ( 'NONE', #111, #142, #27 ) ;
#11 = ADVANCED_FACE ( 'NONE', ( #49 ), #86, .F. ) ;
#12 = DIRECTION ( 'NONE',  ( 0.000000000000000000, 0.000000000000000000, 1.000000000000000000 ) ) ;
#13 = DIRECTION ( 'NONE',  ( -0.000000000000000000, -1.000000000000000000, -0.000000000000000000 ) ) ;
#14 = DIRECTION ( 'NONE',  ( 0.000000000000000000, 1.000000000000000000, 0.000000000000000000 ) ) ;
#15 = ORIENTED_EDGE ( 'NONE', *, *, #158, .F. ) ;
#16 = AXIS2_PLACEMENT_3D ( 'NONE', #216, #61, #115 ) ;
#17 = EDGE_LOOP ( 'NONE', ( #54, #66 ) ) ;
#18 = CARTESIAN_POINT ( 'NONE',  ( 0.000000000000000000, 0.000000000000000000, 0.000000000000000000 ) ) ;
#19 = ORIENTED_EDGE ( 'NONE', *, *, #48, .F. ) ;
#20 = DIMENSIONAL_EXPONENTS ( 1.000000000000000000, 0.000000000000000000, 0.000000000000000000, 0.000000000000000000, 0.000000000000000000, 0.000000000000000000, 0.000000000000000000 ) ;
#21 = AXIS2_PLACEMENT_3D ( 'NONE', #42, #75, #139 ) ;
#22 = CARTESIAN_POINT ( 'NONE',  ( 2.296212748401287726E-17, 0.000000000000000000, 0.1875000000000000278 ) ) ;
#23 =( NAMED_UNIT ( * ) PLANE_ANGLE_UNIT ( ) SI_UNIT ( $, .RADIAN. ) );
#24 = DIRECTION ( 'NONE',  ( 0.000000000000000000, 0.000000000000000000, 1.000000000000000000 ) ) ;
#25 = AXIS2_PLACEMENT_3D ( 'NONE', #57, #71, #211 ) ;
#26 = EDGE_CURVE ( 'NONE', #68, #154, #84, .T. ) ;
#27 = DIRECTION ( 'NONE',  ( 0.000000000000000000, -0.000000000000000000, 1.000000000000000000 ) ) ;
#28 = APPLICATION_CONTEXT ( 'automotive_design' ) ;
#29 = FACE_OUTER_BOUND ( 'NONE', #152, .T. ) ;
#30 = DIRECTION ( 'NONE',  ( 0.000000000000000000, 0.000000000000000000, -1.000000000000000000 ) ) ;
#31 = CARTESIAN_POINT ( 'NONE',  ( 2.296212748401287726E-17, 0.5000000000000000000, 0.1875000000000000278 ) ) ;
#32 = CYLINDRICAL_SURFACE ( 'NONE', #33, 0.09600000000000001588 ) ;
#33 = AXIS2_PLACEMENT_3D ( 'NONE', #43, #101, #30 ) ;
#34 = ORIENTED_EDGE ( 'NONE', *, *, #199, .T. ) ;
#35 = AXIS2_PLACEMENT_3D ( 'NONE', #145, #219, #112 ) ;
#36 = ORIENTED_EDGE ( 'NONE', *, *, #26, .F. ) ;
#37 = ORIENTED_EDGE ( 'NONE', *, *, #124, .F. ) ;
#38 = PRODUCT_CONTEXT ( 'NONE', #182, 'mechanical' ) ;
#39 = CARTESIAN_POINT ( 'NONE',  ( 1.175660927181459249E-17, 0.000000000000000000, 0.09600000000000001588 ) ) ;
#40 = CARTESIAN_POINT ( 'NONE',  ( 0.000000000000000000, 0.5000000000000000000, 0.000000000000000000 ) ) ;
#41 = STYLED_ITEM ( 'NONE', ( #208 ), #141 ) ;
#42 = CARTESIAN_POINT ( 'NONE',  ( 0.000000000000000000, 0.000000000000000000, 0.000000000000000000 ) ) ;
#43 = CARTESIAN_POINT ( 'NONE',  ( 0.000000000000000000, 0.5000000000000000000, 0.000000000000000000 ) ) ;
#44 = AXIS2_PLACEMENT_3D ( 'NONE', #157, #4, #92 ) ;
#45 = CARTESIAN_POINT ( 'NONE',  ( 0.000000000000000000, 0.5000000000000000000, 0.000000000000000000 ) ) ;
#46 = UNCERTAINTY_MEASURE_WITH_UNIT (LENGTH_MEASURE( 1.000000000000000082E-05 ), #7, 'distance_accuracy_value', 'NONE');
#47 = VERTEX_POINT ( 'NONE', #6 ) ;
#48 = EDGE_CURVE ( 'NONE', #154, #68, #151, .T. ) ;
#49 = FACE_OUTER_BOUND ( 'NONE', #169, .T. ) ;
#50 = APPLICATION_PROTOCOL_DEFINITION ( 'draft international standard', 'automotive_design', 1998, #28 ) ;
#51 = ORIENTED_EDGE ( 'NONE', *, *, #119, .T. ) ;
#52 = MECHANICAL_DESIGN_GEOMETRIC_PRESENTATION_REPRESENTATION (  '', ( #41 ), #114 ) ;
#53 = ORIENTED_EDGE ( 'NONE', *, *, #158, .T. ) ;
#54 = ORIENTED_EDGE ( 'NONE', *, *, #124, .T. ) ;
#55 = CARTESIAN_POINT ( 'NONE',  ( 0.000000000000000000, 0.5000000000000000000, 0.000000000000000000 ) ) ;
#56 = CIRCLE ( 'NONE', #44, 0.1875000000000000278 ) ;
#57 = CARTESIAN_POINT ( 'NONE',  ( 0.000000000000000000, 0.000000000000000000, 0.000000000000000000 ) ) ;
#58 = FACE_OUTER_BOUND ( 'NONE', #200, .T. ) ;
#59 = MECHANICAL_DESIGN_GEOMETRIC_PRESENTATION_REPRESENTATION (  '', ( #159 ), #77 ) ;
#60 = LINE ( 'NONE', #78, #175 ) ;
#61 = DIRECTION ( 'NONE',  ( 0.000000000000000000, 1.000000000000000000, 0.000000000000000000 ) ) ;
#62 = FILL_AREA_STYLE_COLOUR ( '', #132 ) ;
#63 = ORIENTED_EDGE ( 'NONE', *, *, #64, .T. ) ;
#64 = EDGE_CURVE ( 'NONE', #184, #68, #129, .T. ) ;
#65 = AXIS2_PLACEMENT_3D ( 'NONE', #45, #14, #181 ) ;
#66 = ORIENTED_EDGE ( 'NONE', *, *, #171, .T. ) ;
#67 = DIRECTION ( 'NONE',  ( -0.000000000000000000, -1.000000000000000000, -0.000000000000000000 ) ) ;
#68 = VERTEX_POINT ( 'NONE', #22 ) ;
#69 = EDGE_LOOP ( 'NONE', ( #186, #215 ) ) ;
#70 = DIMENSIONAL_EXPONENTS ( 1.000000000000000000, 0.000000000000000000, 0.000000000000000000, 0.000000000000000000, 0.000000000000000000, 0.000000000000000000, 0.000000000000000000 ) ;
#71 = DIRECTION ( 'NONE',  ( 0.000000000000000000, 1.000000000000000000, 0.000000000000000000 ) ) ;
#72 = ADVANCED_FACE ( 'NONE', ( #58, #8 ), #76, .T. ) ;
#73 =( NAMED_UNIT ( * ) SI_UNIT ( $, .STERADIAN. ) SOLID_ANGLE_UNIT ( ) );
#74 = CARTESIAN_POINT ( 'NONE',  ( 2.296212748401287726E-17, 0.5000000000000000000, 0.1875000000000000278 ) ) ;
#75 = DIRECTION ( 'NONE',  ( 0.000000000000000000, 1.000000000000000000, 0.000000000000000000 ) ) ;
#76 = PLANE ( 'NONE',  #10 ) ;
#77 =( GEOMETRIC_REPRESENTATION_CONTEXT ( 3 ) GLOBAL_UNCERTAINTY_ASSIGNED_CONTEXT ( ( #149 ) ) GLOBAL_UNIT_ASSIGNED_CONTEXT ( ( #123, #188, #73 ) ) REPRESENTATION_CONTEXT ( 'NONE', 'WORKASPACE' ) );
#78 = CARTESIAN_POINT ( 'NONE',  ( 1.175660927181459249E-17, 0.5000000000000000000, 0.09600000000000001588 ) ) ;
#79 = CYLINDRICAL_SURFACE ( 'NONE', #35, 0.1875000000000000278 ) ;
#80 = CIRCLE ( 'NONE', #65, 0.09600000000000001588 ) ;
#81 = PLANE ( 'NONE',  #16 ) ;
#82 = PRODUCT_RELATED_PRODUCT_CATEGORY ( 'part', '', ( #164 ) ) ;
#83 = VERTEX_POINT ( 'NONE', #140 ) ;
#84 = CIRCLE ( 'NONE', #21, 0.1875000000000000278 ) ;
#85 = EDGE_LOOP ( 'NONE', ( #15, #51, #121, #104 ) ) ;
#86 = CYLINDRICAL_SURFACE ( 'NONE', #153, 0.09600000000000001588 ) ;
#87 = EDGE_CURVE ( 'NONE', #184, #47, #56, .T. ) ;
#88 = DIRECTION ( 'NONE',  ( 0.000000000000000000, 0.000000000000000000, 1.000000000000000000 ) ) ;
#89 = ORIENTED_EDGE ( 'NONE', *, *, #163, .F. ) ;
#90 = DIRECTION ( 'NONE',  ( 0.000000000000000000, 0.000000000000000000, 1.000000000000000000 ) ) ;
#91 = EDGE_CURVE ( 'NONE', #47, #184, #162, .T. ) ;
#92 = DIRECTION ( 'NONE',  ( 0.000000000000000000, 0.000000000000000000, 1.000000000000000000 ) ) ;
#93 = DIRECTION ( 'NONE',  ( 0.000000000000000000, 1.000000000000000000, 0.000000000000000000 ) ) ;
#94 = AXIS2_PLACEMENT_3D ( 'NONE', #40, #160, #90 ) ;
#95 = DIRECTION ( 'NONE',  ( 0.000000000000000000, 1.000000000000000000, 0.000000000000000000 ) ) ;
#96 = CARTESIAN_POINT ( 'NONE',  ( 0.000000000000000000, 0.5000000000000000000, 0.000000000000000000 ) ) ;
#97 = FACE_BOUND ( 'NONE', #17, .T. ) ;
#98 = VERTEX_POINT ( 'NONE', #176 ) ;
#99 = FACE_OUTER_BOUND ( 'NONE', #85, .T. ) ;
#100 = FILL_AREA_STYLE ('',( #62 ) ) ;
#101 = DIRECTION ( 'NONE',  ( -0.000000000000000000, -1.000000000000000000, -0.000000000000000000 ) ) ;
#102 =( GEOMETRIC_REPRESENTATION_CONTEXT ( 3 ) GLOBAL_UNCERTAINTY_ASSIGNED_CONTEXT ( ( #135 ) ) GLOBAL_UNIT_ASSIGNED_CONTEXT ( ( #144, #9, #196 ) ) REPRESENTATION_CONTEXT ( 'NONE', 'WORKASPACE' ) );
#103 = ORIENTED_EDGE ( 'NONE', *, *, #91, .F. ) ;
#104 = ORIENTED_EDGE ( 'NONE', *, *, #171, .F. ) ;
#105 = AXIS2_PLACEMENT_3D ( 'NONE', #173, #95, #24 ) ;
#106 = DIMENSIONAL_EXPONENTS ( 1.000000000000000000, 0.000000000000000000, 0.000000000000000000, 0.000000000000000000, 0.000000000000000000, 0.000000000000000000, 0.000000000000000000 ) ;
#107 = ORIENTED_EDGE ( 'NONE', *, *, #91, .T. ) ;
#108 = ORIENTED_EDGE ( 'NONE', *, *, #48, .T. ) ;
#109 = SURFACE_SIDE_STYLE ('',( #192 ) ) ;
#110 = DIRECTION ( 'NONE',  ( -0.000000000000000000, -1.000000000000000000, -0.000000000000000000 ) ) ;
#111 = CARTESIAN_POINT ( 'NONE',  ( 0.000000000000000000, 0.5000000000000000000, 0.000000000000000000 ) ) ;
#112 = DIRECTION ( 'NONE',  ( 0.000000000000000000, 0.000000000000000000, -1.000000000000000000 ) ) ;
#113 = DIRECTION ( 'NONE',  ( -0.000000000000000000, -1.000000000000000000, -0.000000000000000000 ) ) ;
#114 =( GEOMETRIC_REPRESENTATION_CONTEXT ( 3 ) GLOBAL_UNCERTAINTY_ASSIGNED_CONTEXT ( ( #46 ) ) GLOBAL_UNIT_ASSIGNED_CONTEXT ( ( #7, #23, #212 ) ) REPRESENTATION_CONTEXT ( 'NONE', 'WORKASPACE' ) );
#115 = DIRECTION ( 'NONE',  ( 0.000000000000000000, -0.000000000000000000, 1.000000000000000000 ) ) ;
#116 = SURFACE_STYLE_FILL_AREA ( #100 ) ;
#117 = LINE ( 'NONE', #138, #128 ) ;
#118 = AXIS2_PLACEMENT_3D ( 'NONE', #18, #88, #5 ) ;
#119 = EDGE_CURVE ( 'NONE', #98, #136, #185, .T. ) ;
#120 = VECTOR ( 'NONE', #67, 39.37007874015748143 ) ;
#121 = ORIENTED_EDGE ( 'NONE', *, *, #163, .T. ) ;
#122 = ORIENTED_EDGE ( 'NONE', *, *, #177, .F. ) ;
#123 =( CONVERSION_BASED_UNIT ( 'INCH', #156 ) LENGTH_UNIT ( ) NAMED_UNIT ( #70 ) );
#124 = EDGE_CURVE ( 'NONE', #83, #137, #197, .T. ) ;
#125 = DIRECTION ( 'NONE',  ( 0.000000000000000000, 0.000000000000000000, 1.000000000000000000 ) ) ;
#126 = DIRECTION ( 'NONE',  ( 0.000000000000000000, 0.000000000000000000, -1.000000000000000000 ) ) ;
#127 = CYLINDRICAL_SURFACE ( 'NONE', #1, 0.1875000000000000278 ) ;
#128 = VECTOR ( 'NONE', #113, 39.37007874015748143 ) ;
#129 = LINE ( 'NONE', #74, #214 ) ;
#130 = ADVANCED_FACE ( 'NONE', ( #191 ), #127, .T. ) ;
#131 = SURFACE_STYLE_USAGE ( .BOTH. , #180 ) ;
#132 = COLOUR_RGB ( '',1.000000000000000000, 1.000000000000000000, 1.000000000000000000 ) ;
#133 = DIRECTION ( 'NONE',  ( 0.000000000000000000, 1.000000000000000000, 0.000000000000000000 ) ) ;
#134 = LENGTH_MEASURE_WITH_UNIT ( LENGTH_MEASURE( 0.02539999999999999897 ), #150 );
#135 = UNCERTAINTY_MEASURE_WITH_UNIT (LENGTH_MEASURE( 1.000000000000000082E-05 ), #144, 'distance_accuracy_value', 'NONE');
#136 = VERTEX_POINT ( 'NONE', #213 ) ;
#137 = VERTEX_POINT ( 'NONE', #39 ) ;
#138 = CARTESIAN_POINT ( 'NONE',  ( 0.000000000000000000, 0.5000000000000000000, -0.1875000000000000278 ) ) ;
#139 = DIRECTION ( 'NONE',  ( 0.000000000000000000, 0.000000000000000000, 1.000000000000000000 ) ) ;
#140 = CARTESIAN_POINT ( 'NONE',  ( 0.000000000000000000, 0.000000000000000000, -0.09600000000000001588 ) ) ;
#141 = MANIFOLD_SOLID_BREP ( 'Boss-Extrude1', #203 ) ;
#142 = DIRECTION ( 'NONE',  ( 0.000000000000000000, 1.000000000000000000, 0.000000000000000000 ) ) ;
#143 = PRESENTATION_LAYER_ASSIGNMENT (  '', '', ( #159 ) ) ;
#144 =( CONVERSION_BASED_UNIT ( 'INCH', #134 ) LENGTH_UNIT ( ) NAMED_UNIT ( #106 ) );
#145 = CARTESIAN_POINT ( 'NONE',  ( 0.000000000000000000, 0.5000000000000000000, 0.000000000000000000 ) ) ;
#146 = PRESENTATION_LAYER_ASSIGNMENT (  '', '', ( #41 ) ) ;
#147 = PRESENTATION_STYLE_ASSIGNMENT (( #131 ) ) ;
#148 = ADVANCED_BREP_SHAPE_REPRESENTATION ( 'am-1697 0.194 ID 0.375 OD 0.500 Long Nylon Spacer', ( #141, #118 ), #102 ) ;
#149 = UNCERTAINTY_MEASURE_WITH_UNIT (LENGTH_MEASURE( 1.000000000000000082E-05 ), #123, 'distance_accuracy_value', 'NONE');
#150 =( LENGTH_UNIT ( ) NAMED_UNIT ( * ) SI_UNIT ( $, .METRE. ) );
#151 = CIRCLE ( 'NONE', #167, 0.1875000000000000278 ) ;
#152 = EDGE_LOOP ( 'NONE', ( #19, #36 ) ) ;
#153 = AXIS2_PLACEMENT_3D ( 'NONE', #55, #195, #161 ) ;
#154 = VERTEX_POINT ( 'NONE', #165 ) ;
#155 = SURFACE_STYLE_USAGE ( .BOTH. , #109 ) ;
#156 = LENGTH_MEASURE_WITH_UNIT ( LENGTH_MEASURE( 0.02539999999999999897 ), #166 );
#157 = CARTESIAN_POINT ( 'NONE',  ( 0.000000000000000000, 0.5000000000000000000, 0.000000000000000000 ) ) ;
#158 = EDGE_CURVE ( 'NONE', #98, #137, #60, .T. ) ;
#159 = STYLED_ITEM ( 'NONE', ( #147 ), #148 ) ;
#160 = DIRECTION ( 'NONE',  ( 0.000000000000000000, 1.000000000000000000, 0.000000000000000000 ) ) ;
#161 = DIRECTION ( 'NONE',  ( 0.000000000000000000, 0.000000000000000000, -1.000000000000000000 ) ) ;
#162 = CIRCLE ( 'NONE', #105, 0.1875000000000000278 ) ;
#163 = EDGE_CURVE ( 'NONE', #136, #83, #179, .T. ) ;
#164 = PRODUCT ( 'am-1697 0.194 ID 0.375 OD 0.500 Long Nylon Spacer', 'am-1697 0.194 ID 0.375 OD 0.500 Long Nylon Spacer', '', ( #38 ) ) ;
#165 = CARTESIAN_POINT ( 'NONE',  ( 0.000000000000000000, 0.000000000000000000, -0.1875000000000000278 ) ) ;
#166 =( LENGTH_UNIT ( ) NAMED_UNIT ( * ) SI_UNIT ( $, .METRE. ) );
#167 = AXIS2_PLACEMENT_3D ( 'NONE', #2, #93, #125 ) ;
#168 = CARTESIAN_POINT ( 'NONE',  ( 0.000000000000000000, 0.5000000000000000000, -0.09600000000000001588 ) ) ;
#169 = EDGE_LOOP ( 'NONE', ( #34, #53, #37, #89 ) ) ;
#170 = ORIENTED_EDGE ( 'NONE', *, *, #26, .T. ) ;
#171 = EDGE_CURVE ( 'NONE', #137, #83, #194, .T. ) ;
#172 = LENGTH_MEASURE_WITH_UNIT ( LENGTH_MEASURE( 0.02539999999999999897 ), #189 );
#173 = CARTESIAN_POINT ( 'NONE',  ( 0.000000000000000000, 0.5000000000000000000, 0.000000000000000000 ) ) ;
#174 = DIRECTION ( 'NONE',  ( -0.000000000000000000, -1.000000000000000000, -0.000000000000000000 ) ) ;
#175 = VECTOR ( 'NONE', #13, 39.37007874015748143 ) ;
#176 = CARTESIAN_POINT ( 'NONE',  ( 1.175660927181459249E-17, 0.5000000000000000000, 0.09600000000000001588 ) ) ;
#177 = EDGE_CURVE ( 'NONE', #47, #154, #117, .T. ) ;
#178 = PRODUCT_DEFINITION_SHAPE ( 'NONE', 'NONE',  #3 ) ;
#179 = LINE ( 'NONE', #168, #120 ) ;
#180 = SURFACE_SIDE_STYLE ('',( #116 ) ) ;
#181 = DIRECTION ( 'NONE',  ( 0.000000000000000000, 0.000000000000000000, 1.000000000000000000 ) ) ;
#182 = APPLICATION_CONTEXT ( 'automotive_design' ) ;
#183 = ORIENTED_EDGE ( 'NONE', *, *, #87, .T. ) ;
#184 = VERTEX_POINT ( 'NONE', #31 ) ;
#185 = CIRCLE ( 'NONE', #94, 0.09600000000000001588 ) ;
#186 = ORIENTED_EDGE ( 'NONE', *, *, #199, .F. ) ;
#187 = EDGE_LOOP ( 'NONE', ( #204, #103, #221, #108 ) ) ;
#188 =( NAMED_UNIT ( * ) PLANE_ANGLE_UNIT ( ) SI_UNIT ( $, .RADIAN. ) );
#189 =( LENGTH_UNIT ( ) NAMED_UNIT ( * ) SI_UNIT ( $, .METRE. ) );
#190 = ADVANCED_FACE ( 'NONE', ( #99 ), #32, .F. ) ;
#191 = FACE_OUTER_BOUND ( 'NONE', #206, .T. ) ;
#192 = SURFACE_STYLE_FILL_AREA ( #193 ) ;
#193 = FILL_AREA_STYLE ('',( #210 ) ) ;
#194 = CIRCLE ( 'NONE', #209, 0.09600000000000001588 ) ;
#195 = DIRECTION ( 'NONE',  ( -0.000000000000000000, -1.000000000000000000, -0.000000000000000000 ) ) ;
#196 =( NAMED_UNIT ( * ) SI_UNIT ( $, .STERADIAN. ) SOLID_ANGLE_UNIT ( ) );
#197 = CIRCLE ( 'NONE', #25, 0.09600000000000001588 ) ;
#198 = PRODUCT_DEFINITION_FORMATION_WITH_SPECIFIED_SOURCE ( 'ANY', '', #164, .NOT_KNOWN. ) ;
#199 = EDGE_CURVE ( 'NONE', #136, #98, #80, .T. ) ;
#200 = EDGE_LOOP ( 'NONE', ( #107, #183 ) ) ;
#201 = FACE_OUTER_BOUND ( 'NONE', #187, .T. ) ;
#202 = ADVANCED_FACE ( 'NONE', ( #201 ), #79, .T. ) ;
#203 = CLOSED_SHELL ( 'NONE', ( #11, #130, #72, #223, #202, #190 ) ) ;
#204 = ORIENTED_EDGE ( 'NONE', *, *, #64, .F. ) ;
#205 = SHAPE_DEFINITION_REPRESENTATION ( #178, #148 ) ;
#206 = EDGE_LOOP ( 'NONE', ( #222, #63, #170, #122 ) ) ;
#207 = APPLICATION_PROTOCOL_DEFINITION ( 'draft international standard', 'automotive_design', 1998, #182 ) ;
#208 = PRESENTATION_STYLE_ASSIGNMENT (( #155 ) ) ;
#209 = AXIS2_PLACEMENT_3D ( 'NONE', #218, #133, #12 ) ;
#210 = FILL_AREA_STYLE_COLOUR ( '', #217 ) ;
#211 = DIRECTION ( 'NONE',  ( 0.000000000000000000, 0.000000000000000000, 1.000000000000000000 ) ) ;
#212 =( NAMED_UNIT ( * ) SI_UNIT ( $, .STERADIAN. ) SOLID_ANGLE_UNIT ( ) );
#213 = CARTESIAN_POINT ( 'NONE',  ( 0.000000000000000000, 0.5000000000000000000, -0.09600000000000001588 ) ) ;
#214 = VECTOR ( 'NONE', #110, 39.37007874015748143 ) ;
#215 = ORIENTED_EDGE ( 'NONE', *, *, #119, .F. ) ;
#216 = CARTESIAN_POINT ( 'NONE',  ( 0.000000000000000000, 0.000000000000000000, 0.000000000000000000 ) ) ;
#217 = COLOUR_RGB ( '',1.000000000000000000, 1.000000000000000000, 1.000000000000000000 ) ;
#218 = CARTESIAN_POINT ( 'NONE',  ( 0.000000000000000000, 0.000000000000000000, 0.000000000000000000 ) ) ;
#219 = DIRECTION ( 'NONE',  ( -0.000000000000000000, -1.000000000000000000, -0.000000000000000000 ) ) ;
#220 = PRODUCT_DEFINITION_CONTEXT ( 'detailed design', #28, 'design' ) ;
#221 = ORIENTED_EDGE ( 'NONE', *, *, #177, .T. ) ;
#222 = ORIENTED_EDGE ( 'NONE', *, *, #87, .F. ) ;
#223 = ADVANCED_FACE ( 'NONE', ( #29, #97 ), #81, .F. ) ;
ENDSEC;
END-ISO-10303-21;
