ISO-10303-21;
HEADER;
FILE_DESCRIPTION (( 'STEP AP214' ),
    '1' );
FILE_NAME ('am-1698 0.430 ID 0.500 OD 0.250 Long Aluminum Spacer.STEP',
    '2023-07-26T19:29:03',
    ( '' ),
    ( '' ),
    'SwSTEP 2.0',
    'SolidWorks 2022',
    '' );
FILE_SCHEMA (( 'AUTOMOTIVE_DESIGN' ));
ENDSEC;

DATA;
#1 = VERTEX_POINT ( 'NONE', #73 ) ;
#2 = DIRECTION ( 'NONE',  ( -0.000000000000000000, -0.000000000000000000, -1.000000000000000000 ) ) ;
#3 = ORIENTED_EDGE ( 'NONE', *, *, #119, .F. ) ;
#4 = PRODUCT_DEFINITION_CONTEXT ( 'detailed design', #11, 'design' ) ;
#5 = ORIENTED_EDGE ( 'NONE', *, *, #111, .F. ) ;
#6 = DIRECTION ( 'NONE',  ( 1.000000000000000000, 0.000000000000000000, 0.000000000000000000 ) ) ;
#7 = PLANE ( 'NONE',  #187 ) ;
#8 = EDGE_CURVE ( 'NONE', #1, #102, #194, .T. ) ;
#9 = DIRECTION ( 'NONE',  ( 1.000000000000000000, 0.000000000000000000, 0.000000000000000000 ) ) ;
#10 = DIMENSIONAL_EXPONENTS ( 1.000000000000000000, 0.000000000000000000, 0.000000000000000000, 0.000000000000000000, 0.000000000000000000, 0.000000000000000000, 0.000000000000000000 ) ;
#11 = APPLICATION_CONTEXT ( 'automotive_design' ) ;
#12 = CARTESIAN_POINT ( 'NONE',  ( -0.2149999999999999689, 0.000000000000000000, 0.2500000000000000000 ) ) ;
#13 = CARTESIAN_POINT ( 'NONE',  ( 0.2149999999999999689, 2.632990618166808804E-17, 0.2500000000000000000 ) ) ;
#14 = MECHANICAL_DESIGN_GEOMETRIC_PRESENTATION_REPRESENTATION (  '', ( #173 ), #204 ) ;
#15 = DIRECTION ( 'NONE',  ( 1.000000000000000000, 0.000000000000000000, -0.000000000000000000 ) ) ;
#16 = SURFACE_STYLE_USAGE ( .BOTH. , #62 ) ;
#17 = PRESENTATION_STYLE_ASSIGNMENT (( #16 ) ) ;
#18 = VERTEX_POINT ( 'NONE', #206 ) ;
#19 = EDGE_CURVE ( 'NONE', #18, #41, #159, .T. ) ;
#20 = ORIENTED_EDGE ( 'NONE', *, *, #8, .F. ) ;
#21 =( NAMED_UNIT ( * ) PLANE_ANGLE_UNIT ( ) SI_UNIT ( $, .RADIAN. ) );
#22 = FACE_OUTER_BOUND ( 'NONE', #117, .T. ) ;
#23 = AXIS2_PLACEMENT_3D ( 'NONE', #60, #209, #15 ) ;
#24 = ADVANCED_FACE ( 'NONE', ( #142 ), #26, .T. ) ;
#25 = DIRECTION ( 'NONE',  ( 1.000000000000000000, 0.000000000000000000, 0.000000000000000000 ) ) ;
#26 = CYLINDRICAL_SURFACE ( 'NONE', #141, 0.2500000000000000000 ) ;
#27 = CLOSED_SHELL ( 'NONE', ( #96, #24, #61, #124, #78, #203 ) ) ;
#28 = CARTESIAN_POINT ( 'NONE',  ( 0.2500000000000000000, 3.061616997868383018E-17, 0.2500000000000000000 ) ) ;
#29 = FILL_AREA_STYLE_COLOUR ( '', #160 ) ;
#30 = DIRECTION ( 'NONE',  ( 0.000000000000000000, 0.000000000000000000, 1.000000000000000000 ) ) ;
#31 = AXIS2_PLACEMENT_3D ( 'NONE', #213, #64, #178 ) ;
#32 = FACE_OUTER_BOUND ( 'NONE', #202, .T. ) ;
#33 = VERTEX_POINT ( 'NONE', #143 ) ;
#34 = AXIS2_PLACEMENT_3D ( 'NONE', #171, #58, #6 ) ;
#35 =( CONVERSION_BASED_UNIT ( 'INCH', #218 ) LENGTH_UNIT ( ) NAMED_UNIT ( #127 ) );
#36 = ORIENTED_EDGE ( 'NONE', *, *, #19, .F. ) ;
#37 = CARTESIAN_POINT ( 'NONE',  ( 0.2500000000000000000, 3.061616997868383018E-17, 0.2500000000000000000 ) ) ;
#38 = ORIENTED_EDGE ( 'NONE', *, *, #54, .T. ) ;
#39 =( NAMED_UNIT ( * ) SI_UNIT ( $, .STERADIAN. ) SOLID_ANGLE_UNIT ( ) );
#40 = AXIS2_PLACEMENT_3D ( 'NONE', #89, #123, #9 ) ;
#41 = VERTEX_POINT ( 'NONE', #130 ) ;
#42 = CARTESIAN_POINT ( 'NONE',  ( 0.000000000000000000, 0.000000000000000000, 0.2500000000000000000 ) ) ;
#43 = EDGE_CURVE ( 'NONE', #33, #41, #45, .T. ) ;
#44 = UNCERTAINTY_MEASURE_WITH_UNIT (LENGTH_MEASURE( 1.000000000000000082E-05 ), #35, 'distance_accuracy_value', 'NONE');
#45 = LINE ( 'NONE', #12, #200 ) ;
#46 = CARTESIAN_POINT ( 'NONE',  ( 0.000000000000000000, 0.000000000000000000, 0.2500000000000000000 ) ) ;
#47 = CYLINDRICAL_SURFACE ( 'NONE', #216, 0.2500000000000000000 ) ;
#48 = DIRECTION ( 'NONE',  ( 1.000000000000000000, 0.000000000000000000, 0.000000000000000000 ) ) ;
#49 = DIRECTION ( 'NONE',  ( 0.000000000000000000, 0.000000000000000000, 1.000000000000000000 ) ) ;
#50 = FILL_AREA_STYLE ('',( #52 ) ) ;
#51 = EDGE_LOOP ( 'NONE', ( #71, #122, #55, #172 ) ) ;
#52 = FILL_AREA_STYLE_COLOUR ( '', #90 ) ;
#53 = PRESENTATION_STYLE_ASSIGNMENT (( #219 ) ) ;
#54 = EDGE_CURVE ( 'NONE', #156, #185, #207, .T. ) ;
#55 = ORIENTED_EDGE ( 'NONE', *, *, #65, .F. ) ;
#56 = UNCERTAINTY_MEASURE_WITH_UNIT (LENGTH_MEASURE( 1.000000000000000082E-05 ), #101, 'distance_accuracy_value', 'NONE');
#57 = AXIS2_PLACEMENT_3D ( 'NONE', #138, #2, #82 ) ;
#58 = DIRECTION ( 'NONE',  ( 0.000000000000000000, 0.000000000000000000, 1.000000000000000000 ) ) ;
#59 = PRODUCT_CONTEXT ( 'NONE', #217, 'mechanical' ) ;
#60 = CARTESIAN_POINT ( 'NONE',  ( 0.000000000000000000, 0.000000000000000000, 0.000000000000000000 ) ) ;
#61 = ADVANCED_FACE ( 'NONE', ( #22, #87 ), #7, .T. ) ;
#62 = SURFACE_SIDE_STYLE ('',( #92 ) ) ;
#63 = VECTOR ( 'NONE', #113, 39.37007874015748143 ) ;
#64 = DIRECTION ( 'NONE',  ( 0.000000000000000000, 0.000000000000000000, 1.000000000000000000 ) ) ;
#65 = EDGE_CURVE ( 'NONE', #41, #18, #74, .T. ) ;
#66 = CARTESIAN_POINT ( 'NONE',  ( 0.2500000000000000000, 3.061616997868383018E-17, 0.000000000000000000 ) ) ;
#67 = CARTESIAN_POINT ( 'NONE',  ( 0.000000000000000000, 0.000000000000000000, 0.000000000000000000 ) ) ;
#68 = ORIENTED_EDGE ( 'NONE', *, *, #43, .T. ) ;
#69 =( NAMED_UNIT ( * ) SI_UNIT ( $, .STERADIAN. ) SOLID_ANGLE_UNIT ( ) );
#70 = ORIENTED_EDGE ( 'NONE', *, *, #211, .T. ) ;
#71 = ORIENTED_EDGE ( 'NONE', *, *, #186, .T. ) ;
#72 = CIRCLE ( 'NONE', #196, 0.2149999999999999689 ) ;
#73 = CARTESIAN_POINT ( 'NONE',  ( -0.2500000000000000000, 0.000000000000000000, 0.2500000000000000000 ) ) ;
#74 = CIRCLE ( 'NONE', #31, 0.2149999999999999689 ) ;
#75 = CARTESIAN_POINT ( 'NONE',  ( 0.000000000000000000, 0.000000000000000000, 0.2500000000000000000 ) ) ;
#76 = DIRECTION ( 'NONE',  ( -0.000000000000000000, -0.000000000000000000, -1.000000000000000000 ) ) ;
#77 = FACE_OUTER_BOUND ( 'NONE', #221, .T. ) ;
#78 = ADVANCED_FACE ( 'NONE', ( #77 ), #47, .T. ) ;
#79 = LINE ( 'NONE', #114, #190 ) ;
#80 = CARTESIAN_POINT ( 'NONE',  ( 0.2149999999999999689, 2.632990618166808804E-17, 0.2500000000000000000 ) ) ;
#81 = ORIENTED_EDGE ( 'NONE', *, *, #54, .F. ) ;
#82 = DIRECTION ( 'NONE',  ( -1.000000000000000000, 0.000000000000000000, 0.000000000000000000 ) ) ;
#83 = VERTEX_POINT ( 'NONE', #13 ) ;
#84 =( NAMED_UNIT ( * ) PLANE_ANGLE_UNIT ( ) SI_UNIT ( $, .RADIAN. ) );
#85 = CIRCLE ( 'NONE', #177, 0.2500000000000000000 ) ;
#86 = ORIENTED_EDGE ( 'NONE', *, *, #211, .F. ) ;
#87 = FACE_BOUND ( 'NONE', #151, .T. ) ;
#88 = AXIS2_PLACEMENT_3D ( 'NONE', #75, #128, #25 ) ;
#89 = CARTESIAN_POINT ( 'NONE',  ( 0.000000000000000000, 0.000000000000000000, 0.000000000000000000 ) ) ;
#90 = COLOUR_RGB ( '',0.8980392156862745390, 0.9176470588235293713, 0.9294117647058823817 ) ;
#91 = DIRECTION ( 'NONE',  ( 1.000000000000000000, 0.000000000000000000, -0.000000000000000000 ) ) ;
#92 = SURFACE_STYLE_FILL_AREA ( #183 ) ;
#93 = MECHANICAL_DESIGN_GEOMETRIC_PRESENTATION_REPRESENTATION (  '', ( #164 ), #168 ) ;
#94 =( LENGTH_UNIT ( ) NAMED_UNIT ( * ) SI_UNIT ( $, .METRE. ) );
#95 = FACE_BOUND ( 'NONE', #152, .T. ) ;
#96 = ADVANCED_FACE ( 'NONE', ( #132 ), #144, .F. ) ;
#97 = DIRECTION ( 'NONE',  ( 1.000000000000000000, 0.000000000000000000, 0.000000000000000000 ) ) ;
#98 = PRESENTATION_LAYER_ASSIGNMENT (  '', '', ( #164 ) ) ;
#99 = LENGTH_MEASURE_WITH_UNIT ( LENGTH_MEASURE( 0.02539999999999999897 ), #120 );
#100 = ORIENTED_EDGE ( 'NONE', *, *, #111, .T. ) ;
#101 =( CONVERSION_BASED_UNIT ( 'INCH', #99 ) LENGTH_UNIT ( ) NAMED_UNIT ( #158 ) );
#102 = VERTEX_POINT ( 'NONE', #28 ) ;
#103 = DIRECTION ( 'NONE',  ( 0.000000000000000000, 0.000000000000000000, 1.000000000000000000 ) ) ;
#104 = ORIENTED_EDGE ( 'NONE', *, *, #193, .T. ) ;
#105 = AXIS2_PLACEMENT_3D ( 'NONE', #192, #108, #175 ) ;
#106 = ORIENTED_EDGE ( 'NONE', *, *, #205, .F. ) ;
#107 = MANIFOLD_SOLID_BREP ( 'Boss-Extrude1', #27 ) ;
#108 = DIRECTION ( 'NONE',  ( 0.000000000000000000, 0.000000000000000000, 1.000000000000000000 ) ) ;
#109 = APPLICATION_PROTOCOL_DEFINITION ( 'draft international standard', 'automotive_design', 1998, #11 ) ;
#110 = PLANE ( 'NONE',  #23 ) ;
#111 = EDGE_CURVE ( 'NONE', #83, #33, #72, .T. ) ;
#112 = CARTESIAN_POINT ( 'NONE',  ( 0.000000000000000000, 0.000000000000000000, 0.2500000000000000000 ) ) ;
#113 = DIRECTION ( 'NONE',  ( -0.000000000000000000, -0.000000000000000000, -1.000000000000000000 ) ) ;
#114 = CARTESIAN_POINT ( 'NONE',  ( -0.2500000000000000000, 0.000000000000000000, 0.2500000000000000000 ) ) ;
#115 =( NAMED_UNIT ( * ) PLANE_ANGLE_UNIT ( ) SI_UNIT ( $, .RADIAN. ) );
#116 = CYLINDRICAL_SURFACE ( 'NONE', #57, 0.2149999999999999689 ) ;
#117 = EDGE_LOOP ( 'NONE', ( #153, #136 ) ) ;
#118 = AXIS2_PLACEMENT_3D ( 'NONE', #112, #215, #198 ) ;
#119 = EDGE_CURVE ( 'NONE', #83, #18, #162, .T. ) ;
#120 =( LENGTH_UNIT ( ) NAMED_UNIT ( * ) SI_UNIT ( $, .METRE. ) );
#121 = LINE ( 'NONE', #37, #181 ) ;
#122 = ORIENTED_EDGE ( 'NONE', *, *, #119, .T. ) ;
#123 = DIRECTION ( 'NONE',  ( 0.000000000000000000, 0.000000000000000000, 1.000000000000000000 ) ) ;
#124 = ADVANCED_FACE ( 'NONE', ( #180, #95 ), #110, .F. ) ;
#125 = APPLICATION_PROTOCOL_DEFINITION ( 'draft international standard', 'automotive_design', 1998, #217 ) ;
#126 = ADVANCED_BREP_SHAPE_REPRESENTATION ( 'am-1698 0.430 ID 0.500 OD 0.250 Long Aluminum Spacer', ( #107, #34 ), #135 ) ;
#127 = DIMENSIONAL_EXPONENTS ( 1.000000000000000000, 0.000000000000000000, 0.000000000000000000, 0.000000000000000000, 0.000000000000000000, 0.000000000000000000, 0.000000000000000000 ) ;
#128 = DIRECTION ( 'NONE',  ( 0.000000000000000000, 0.000000000000000000, 1.000000000000000000 ) ) ;
#129 = UNCERTAINTY_MEASURE_WITH_UNIT (LENGTH_MEASURE( 1.000000000000000082E-05 ), #210, 'distance_accuracy_value', 'NONE');
#130 = CARTESIAN_POINT ( 'NONE',  ( -0.2149999999999999689, 0.000000000000000000, 0.000000000000000000 ) ) ;
#131 = CARTESIAN_POINT ( 'NONE',  ( 0.000000000000000000, 0.000000000000000000, 0.2500000000000000000 ) ) ;
#132 = FACE_OUTER_BOUND ( 'NONE', #51, .T. ) ;
#133 = DIRECTION ( 'NONE',  ( -0.000000000000000000, -0.000000000000000000, -1.000000000000000000 ) ) ;
#134 = CARTESIAN_POINT ( 'NONE',  ( 0.000000000000000000, 0.000000000000000000, 0.2500000000000000000 ) ) ;
#135 =( GEOMETRIC_REPRESENTATION_CONTEXT ( 3 ) GLOBAL_UNCERTAINTY_ASSIGNED_CONTEXT ( ( #44 ) ) GLOBAL_UNIT_ASSIGNED_CONTEXT ( ( #35, #21, #39 ) ) REPRESENTATION_CONTEXT ( 'NONE', 'WORKASPACE' ) );
#136 = ORIENTED_EDGE ( 'NONE', *, *, #140, .T. ) ;
#137 = AXIS2_PLACEMENT_3D ( 'NONE', #199, #167, #48 ) ;
#138 = CARTESIAN_POINT ( 'NONE',  ( 0.000000000000000000, 0.000000000000000000, 0.2500000000000000000 ) ) ;
#139 = ORIENTED_EDGE ( 'NONE', *, *, #186, .F. ) ;
#140 = EDGE_CURVE ( 'NONE', #102, #1, #154, .T. ) ;
#141 = AXIS2_PLACEMENT_3D ( 'NONE', #42, #161, #208 ) ;
#142 = FACE_OUTER_BOUND ( 'NONE', #170, .T. ) ;
#143 = CARTESIAN_POINT ( 'NONE',  ( -0.2149999999999999689, 0.000000000000000000, 0.2500000000000000000 ) ) ;
#144 = CYLINDRICAL_SURFACE ( 'NONE', #118, 0.2149999999999999689 ) ;
#145 = CIRCLE ( 'NONE', #137, 0.2149999999999999689 ) ;
#146 = DIRECTION ( 'NONE',  ( 1.000000000000000000, 0.000000000000000000, 0.000000000000000000 ) ) ;
#147 = CARTESIAN_POINT ( 'NONE',  ( 0.000000000000000000, 0.000000000000000000, 0.2500000000000000000 ) ) ;
#148 =( LENGTH_UNIT ( ) NAMED_UNIT ( * ) SI_UNIT ( $, .METRE. ) );
#149 = PRESENTATION_LAYER_ASSIGNMENT (  '', '', ( #173 ) ) ;
#150 = SURFACE_STYLE_FILL_AREA ( #50 ) ;
#151 = EDGE_LOOP ( 'NONE', ( #139, #5 ) ) ;
#152 = EDGE_LOOP ( 'NONE', ( #220, #157 ) ) ;
#153 = ORIENTED_EDGE ( 'NONE', *, *, #8, .T. ) ;
#154 = CIRCLE ( 'NONE', #212, 0.2500000000000000000 ) ;
#155 = ORIENTED_EDGE ( 'NONE', *, *, #205, .T. ) ;
#156 = VERTEX_POINT ( 'NONE', #214 ) ;
#157 = ORIENTED_EDGE ( 'NONE', *, *, #19, .T. ) ;
#158 = DIMENSIONAL_EXPONENTS ( 1.000000000000000000, 0.000000000000000000, 0.000000000000000000, 0.000000000000000000, 0.000000000000000000, 0.000000000000000000, 0.000000000000000000 ) ;
#159 = CIRCLE ( 'NONE', #40, 0.2149999999999999689 ) ;
#160 = COLOUR_RGB ( '',0.8980392156862745390, 0.9176470588235293713, 0.9294117647058823817 ) ;
#161 = DIRECTION ( 'NONE',  ( -0.000000000000000000, -0.000000000000000000, -1.000000000000000000 ) ) ;
#162 = LINE ( 'NONE', #80, #63 ) ;
#163 = DIRECTION ( 'NONE',  ( 1.000000000000000000, 0.000000000000000000, 0.000000000000000000 ) ) ;
#164 = STYLED_ITEM ( 'NONE', ( #53 ), #126 ) ;
#165 = PRODUCT_RELATED_PRODUCT_CATEGORY ( 'part', '', ( #222 ) ) ;
#166 = DIRECTION ( 'NONE',  ( 0.000000000000000000, 0.000000000000000000, 1.000000000000000000 ) ) ;
#167 = DIRECTION ( 'NONE',  ( 0.000000000000000000, 0.000000000000000000, 1.000000000000000000 ) ) ;
#168 =( GEOMETRIC_REPRESENTATION_CONTEXT ( 3 ) GLOBAL_UNCERTAINTY_ASSIGNED_CONTEXT ( ( #56 ) ) GLOBAL_UNIT_ASSIGNED_CONTEXT ( ( #101, #84, #69 ) ) REPRESENTATION_CONTEXT ( 'NONE', 'WORKASPACE' ) );
#169 = ORIENTED_EDGE ( 'NONE', *, *, #193, .F. ) ;
#170 = EDGE_LOOP ( 'NONE', ( #201, #155, #70, #169 ) ) ;
#171 = CARTESIAN_POINT ( 'NONE',  ( 0.000000000000000000, 0.000000000000000000, 0.000000000000000000 ) ) ;
#172 = ORIENTED_EDGE ( 'NONE', *, *, #43, .F. ) ;
#173 = STYLED_ITEM ( 'NONE', ( #17 ), #107 ) ;
#174 = DIRECTION ( 'NONE',  ( -0.000000000000000000, -0.000000000000000000, -1.000000000000000000 ) ) ;
#175 = DIRECTION ( 'NONE',  ( 1.000000000000000000, 0.000000000000000000, 0.000000000000000000 ) ) ;
#176 = PRODUCT_DEFINITION ( 'UNKNOWN', '', #223, #4 ) ;
#177 = AXIS2_PLACEMENT_3D ( 'NONE', #67, #103, #97 ) ;
#178 = DIRECTION ( 'NONE',  ( 1.000000000000000000, 0.000000000000000000, 0.000000000000000000 ) ) ;
#179 = LENGTH_MEASURE_WITH_UNIT ( LENGTH_MEASURE( 0.02539999999999999897 ), #94 );
#180 = FACE_OUTER_BOUND ( 'NONE', #189, .T. ) ;
#181 = VECTOR ( 'NONE', #174, 39.37007874015748143 ) ;
#182 = DIRECTION ( 'NONE',  ( -0.000000000000000000, -0.000000000000000000, -1.000000000000000000 ) ) ;
#183 = FILL_AREA_STYLE ('',( #29 ) ) ;
#184 = SURFACE_SIDE_STYLE ('',( #150 ) ) ;
#185 = VERTEX_POINT ( 'NONE', #66 ) ;
#186 = EDGE_CURVE ( 'NONE', #33, #83, #145, .T. ) ;
#187 = AXIS2_PLACEMENT_3D ( 'NONE', #147, #30, #91 ) ;
#188 = PRODUCT_DEFINITION_SHAPE ( 'NONE', 'NONE',  #176 ) ;
#189 = EDGE_LOOP ( 'NONE', ( #81, #86 ) ) ;
#190 = VECTOR ( 'NONE', #182, 39.37007874015748143 ) ;
#191 = SHAPE_DEFINITION_REPRESENTATION ( #188, #126 ) ;
#192 = CARTESIAN_POINT ( 'NONE',  ( 0.000000000000000000, 0.000000000000000000, 0.000000000000000000 ) ) ;
#193 = EDGE_CURVE ( 'NONE', #1, #156, #79, .T. ) ;
#194 = CIRCLE ( 'NONE', #88, 0.2500000000000000000 ) ;
#195 = DIRECTION ( 'NONE',  ( -1.000000000000000000, 0.000000000000000000, 0.000000000000000000 ) ) ;
#196 = AXIS2_PLACEMENT_3D ( 'NONE', #134, #49, #163 ) ;
#197 =( NAMED_UNIT ( * ) SI_UNIT ( $, .STERADIAN. ) SOLID_ANGLE_UNIT ( ) );
#198 = DIRECTION ( 'NONE',  ( -1.000000000000000000, 0.000000000000000000, 0.000000000000000000 ) ) ;
#199 = CARTESIAN_POINT ( 'NONE',  ( 0.000000000000000000, 0.000000000000000000, 0.2500000000000000000 ) ) ;
#200 = VECTOR ( 'NONE', #76, 39.37007874015748143 ) ;
#201 = ORIENTED_EDGE ( 'NONE', *, *, #140, .F. ) ;
#202 = EDGE_LOOP ( 'NONE', ( #3, #100, #68, #36 ) ) ;
#203 = ADVANCED_FACE ( 'NONE', ( #32 ), #116, .F. ) ;
#204 =( GEOMETRIC_REPRESENTATION_CONTEXT ( 3 ) GLOBAL_UNCERTAINTY_ASSIGNED_CONTEXT ( ( #129 ) ) GLOBAL_UNIT_ASSIGNED_CONTEXT ( ( #210, #115, #197 ) ) REPRESENTATION_CONTEXT ( 'NONE', 'WORKASPACE' ) );
#205 = EDGE_CURVE ( 'NONE', #102, #185, #121, .T. ) ;
#206 = CARTESIAN_POINT ( 'NONE',  ( 0.2149999999999999689, 2.632990618166808804E-17, 0.000000000000000000 ) ) ;
#207 = CIRCLE ( 'NONE', #105, 0.2500000000000000000 ) ;
#208 = DIRECTION ( 'NONE',  ( -1.000000000000000000, 0.000000000000000000, 0.000000000000000000 ) ) ;
#209 = DIRECTION ( 'NONE',  ( 0.000000000000000000, 0.000000000000000000, 1.000000000000000000 ) ) ;
#210 =( CONVERSION_BASED_UNIT ( 'INCH', #179 ) LENGTH_UNIT ( ) NAMED_UNIT ( #10 ) );
#211 = EDGE_CURVE ( 'NONE', #185, #156, #85, .T. ) ;
#212 = AXIS2_PLACEMENT_3D ( 'NONE', #131, #166, #146 ) ;
#213 = CARTESIAN_POINT ( 'NONE',  ( 0.000000000000000000, 0.000000000000000000, 0.000000000000000000 ) ) ;
#214 = CARTESIAN_POINT ( 'NONE',  ( -0.2500000000000000000, 0.000000000000000000, 0.000000000000000000 ) ) ;
#215 = DIRECTION ( 'NONE',  ( -0.000000000000000000, -0.000000000000000000, -1.000000000000000000 ) ) ;
#216 = AXIS2_PLACEMENT_3D ( 'NONE', #46, #133, #195 ) ;
#217 = APPLICATION_CONTEXT ( 'automotive_design' ) ;
#218 = LENGTH_MEASURE_WITH_UNIT ( LENGTH_MEASURE( 0.02539999999999999897 ), #148 );
#219 = SURFACE_STYLE_USAGE ( .BOTH. , #184 ) ;
#220 = ORIENTED_EDGE ( 'NONE', *, *, #65, .T. ) ;
#221 = EDGE_LOOP ( 'NONE', ( #106, #20, #104, #38 ) ) ;
#222 = PRODUCT ( 'am-1698 0.430 ID 0.500 OD 0.250 Long Aluminum Spacer', 'am-1698 0.430 ID 0.500 OD 0.250 Long Aluminum Spacer', '', ( #59 ) ) ;
#223 = PRODUCT_DEFINITION_FORMATION_WITH_SPECIFIED_SOURCE ( 'ANY', '', #222, .NOT_KNOWN. ) ;
ENDSEC;
END-ISO-10303-21;
