ISO-10303-21;
HEADER;
FILE_DESCRIPTION (( 'STEP AP214' ),
    '1' );
FILE_NAME ('am-1700 0.194 ID 0.375 OD 0.250 Long Nylon Spacer.STEP',
    '2023-07-26T19:40:06',
    ( '' ),
    ( '' ),
    'SwSTEP 2.0',
    'SolidWorks 2022',
    '' );
FILE_SCHEMA (( 'AUTOMOTIVE_DESIGN' ));
ENDSEC;

DATA;
#1 = CIRCLE ( 'NONE', #79, 0.09600000000000001588 ) ;
#2 = PRODUCT_DEFINITION_CONTEXT ( 'detailed design', #210, 'design' ) ;
#3 = ORIENTED_EDGE ( 'NONE', *, *, #58, .F. ) ;
#4 = SURFACE_STYLE_USAGE ( .BOTH. , #223 ) ;
#5 = VERTEX_POINT ( 'NONE', #74 ) ;
#6 = VERTEX_POINT ( 'NONE', #72 ) ;
#7 = CIRCLE ( 'NONE', #97, 0.09600000000000001588 ) ;
#8 = CARTESIAN_POINT ( 'NONE',  ( 2.296212748401287726E-17, 0.2500000000000000000, 0.1875000000000000278 ) ) ;
#9 = DIRECTION ( 'NONE',  ( -0.000000000000000000, -1.000000000000000000, -0.000000000000000000 ) ) ;
#10 =( NAMED_UNIT ( * ) SI_UNIT ( $, .STERADIAN. ) SOLID_ANGLE_UNIT ( ) );
#11 = DIRECTION ( 'NONE',  ( 0.000000000000000000, -0.000000000000000000, 1.000000000000000000 ) ) ;
#12 = DIRECTION ( 'NONE',  ( 0.000000000000000000, 0.000000000000000000, 1.000000000000000000 ) ) ;
#13 = DIRECTION ( 'NONE',  ( 0.000000000000000000, 0.000000000000000000, 1.000000000000000000 ) ) ;
#14 = CARTESIAN_POINT ( 'NONE',  ( 0.000000000000000000, 0.2500000000000000000, 0.000000000000000000 ) ) ;
#15 = CLOSED_SHELL ( 'NONE', ( #200, #183, #149, #109, #47, #114 ) ) ;
#16 = DIRECTION ( 'NONE',  ( -0.000000000000000000, -1.000000000000000000, -0.000000000000000000 ) ) ;
#17 = DIMENSIONAL_EXPONENTS ( 1.000000000000000000, 0.000000000000000000, 0.000000000000000000, 0.000000000000000000, 0.000000000000000000, 0.000000000000000000, 0.000000000000000000 ) ;
#18 = CYLINDRICAL_SURFACE ( 'NONE', #32, 0.09600000000000001588 ) ;
#19 = EDGE_CURVE ( 'NONE', #126, #214, #146, .T. ) ;
#20 = DIMENSIONAL_EXPONENTS ( 1.000000000000000000, 0.000000000000000000, 0.000000000000000000, 0.000000000000000000, 0.000000000000000000, 0.000000000000000000, 0.000000000000000000 ) ;
#21 = CARTESIAN_POINT ( 'NONE',  ( 0.000000000000000000, 0.2500000000000000000, 0.000000000000000000 ) ) ;
#22 = DIRECTION ( 'NONE',  ( 0.000000000000000000, 1.000000000000000000, 0.000000000000000000 ) ) ;
#23 = CIRCLE ( 'NONE', #122, 0.09600000000000001588 ) ;
#24 = CARTESIAN_POINT ( 'NONE',  ( 2.296212748401287726E-17, 0.000000000000000000, 0.1875000000000000278 ) ) ;
#25 = ORIENTED_EDGE ( 'NONE', *, *, #92, .T. ) ;
#26 = APPLICATION_PROTOCOL_DEFINITION ( 'draft international standard', 'automotive_design', 1998, #210 ) ;
#27 = ORIENTED_EDGE ( 'NONE', *, *, #89, .T. ) ;
#28 = ORIENTED_EDGE ( 'NONE', *, *, #120, .T. ) ;
#29 = PRESENTATION_LAYER_ASSIGNMENT (  '', '', ( #160 ) ) ;
#30 = DIRECTION ( 'NONE',  ( 0.000000000000000000, 0.000000000000000000, 1.000000000000000000 ) ) ;
#31 = EDGE_CURVE ( 'NONE', #126, #6, #164, .T. ) ;
#32 = AXIS2_PLACEMENT_3D ( 'NONE', #21, #153, #190 ) ;
#33 = FACE_OUTER_BOUND ( 'NONE', #110, .T. ) ;
#34 = PRESENTATION_STYLE_ASSIGNMENT (( #129 ) ) ;
#35 = CARTESIAN_POINT ( 'NONE',  ( 1.175660927181459249E-17, 0.2500000000000000000, 0.09600000000000001588 ) ) ;
#36 = CARTESIAN_POINT ( 'NONE',  ( 0.000000000000000000, 0.000000000000000000, -0.1875000000000000278 ) ) ;
#37 = DIRECTION ( 'NONE',  ( 0.000000000000000000, 0.000000000000000000, 1.000000000000000000 ) ) ;
#38 = PRESENTATION_STYLE_ASSIGNMENT (( #4 ) ) ;
#39 = ORIENTED_EDGE ( 'NONE', *, *, #162, .F. ) ;
#40 = ORIENTED_EDGE ( 'NONE', *, *, #58, .T. ) ;
#41 = AXIS2_PLACEMENT_3D ( 'NONE', #121, #37, #104 ) ;
#42 =( CONVERSION_BASED_UNIT ( 'INCH', #69 ) LENGTH_UNIT ( ) NAMED_UNIT ( #17 ) );
#43 = CYLINDRICAL_SURFACE ( 'NONE', #94, 0.1875000000000000278 ) ;
#44 = CARTESIAN_POINT ( 'NONE',  ( 0.000000000000000000, 0.2500000000000000000, 0.000000000000000000 ) ) ;
#45 = ORIENTED_EDGE ( 'NONE', *, *, #65, .T. ) ;
#46 = CIRCLE ( 'NONE', #216, 0.1875000000000000278 ) ;
#47 = ADVANCED_FACE ( 'NONE', ( #95 ), #43, .T. ) ;
#48 = PLANE ( 'NONE',  #133 ) ;
#49 = CARTESIAN_POINT ( 'NONE',  ( 0.000000000000000000, 0.000000000000000000, 0.000000000000000000 ) ) ;
#50 = CIRCLE ( 'NONE', #176, 0.1875000000000000278 ) ;
#51 = CARTESIAN_POINT ( 'NONE',  ( 0.000000000000000000, 0.000000000000000000, 0.000000000000000000 ) ) ;
#52 = UNCERTAINTY_MEASURE_WITH_UNIT (LENGTH_MEASURE( 1.000000000000000082E-05 ), #171, 'distance_accuracy_value', 'NONE');
#53 = VERTEX_POINT ( 'NONE', #93 ) ;
#54 = ORIENTED_EDGE ( 'NONE', *, *, #19, .T. ) ;
#55 = VECTOR ( 'NONE', #158, 39.37007874015748143 ) ;
#56 = CARTESIAN_POINT ( 'NONE',  ( 0.000000000000000000, 0.000000000000000000, 0.000000000000000000 ) ) ;
#57 = EDGE_LOOP ( 'NONE', ( #71, #28, #193, #213 ) ) ;
#58 = EDGE_CURVE ( 'NONE', #6, #144, #108, .T. ) ;
#59 = FILL_AREA_STYLE ('',( #215 ) ) ;
#60 = CIRCLE ( 'NONE', #112, 0.09600000000000001588 ) ;
#61 =( CONVERSION_BASED_UNIT ( 'INCH', #96 ) LENGTH_UNIT ( ) NAMED_UNIT ( #20 ) );
#62 = EDGE_CURVE ( 'NONE', #214, #144, #46, .T. ) ;
#63 = CARTESIAN_POINT ( 'NONE',  ( 0.000000000000000000, 0.2500000000000000000, 0.000000000000000000 ) ) ;
#64 = CARTESIAN_POINT ( 'NONE',  ( 1.175660927181459249E-17, 0.2500000000000000000, 0.09600000000000001588 ) ) ;
#65 = EDGE_CURVE ( 'NONE', #144, #214, #145, .T. ) ;
#66 = CYLINDRICAL_SURFACE ( 'NONE', #172, 0.1875000000000000278 ) ;
#67 = STYLED_ITEM ( 'NONE', ( #34 ), #101 ) ;
#68 = PRODUCT_DEFINITION_SHAPE ( 'NONE', 'NONE',  #138 ) ;
#69 = LENGTH_MEASURE_WITH_UNIT ( LENGTH_MEASURE( 0.02539999999999999897 ), #142 );
#70 =( GEOMETRIC_REPRESENTATION_CONTEXT ( 3 ) GLOBAL_UNCERTAINTY_ASSIGNED_CONTEXT ( ( #85 ) ) GLOBAL_UNIT_ASSIGNED_CONTEXT ( ( #61, #150, #10 ) ) REPRESENTATION_CONTEXT ( 'NONE', 'WORKASPACE' ) );
#71 = ORIENTED_EDGE ( 'NONE', *, *, #165, .F. ) ;
#72 = CARTESIAN_POINT ( 'NONE',  ( 0.000000000000000000, 0.2500000000000000000, -0.1875000000000000278 ) ) ;
#73 = DIRECTION ( 'NONE',  ( 0.000000000000000000, 0.000000000000000000, 1.000000000000000000 ) ) ;
#74 = CARTESIAN_POINT ( 'NONE',  ( 0.000000000000000000, 0.2500000000000000000, -0.09600000000000001588 ) ) ;
#75 = DIRECTION ( 'NONE',  ( 0.000000000000000000, 1.000000000000000000, 0.000000000000000000 ) ) ;
#76 = CARTESIAN_POINT ( 'NONE',  ( 0.000000000000000000, 0.000000000000000000, 0.000000000000000000 ) ) ;
#77 = VECTOR ( 'NONE', #99, 39.37007874015748143 ) ;
#78 = LINE ( 'NONE', #187, #77 ) ;
#79 = AXIS2_PLACEMENT_3D ( 'NONE', #56, #22, #220 ) ;
#80 = LINE ( 'NONE', #64, #188 ) ;
#81 = DIRECTION ( 'NONE',  ( 0.000000000000000000, 1.000000000000000000, 0.000000000000000000 ) ) ;
#82 = FACE_BOUND ( 'NONE', #141, .T. ) ;
#83 = COLOUR_RGB ( '',1.000000000000000000, 1.000000000000000000, 1.000000000000000000 ) ;
#84 =( NAMED_UNIT ( * ) PLANE_ANGLE_UNIT ( ) SI_UNIT ( $, .RADIAN. ) );
#85 = UNCERTAINTY_MEASURE_WITH_UNIT (LENGTH_MEASURE( 1.000000000000000082E-05 ), #61, 'distance_accuracy_value', 'NONE');
#86 = FACE_OUTER_BOUND ( 'NONE', #195, .T. ) ;
#87 = ORIENTED_EDGE ( 'NONE', *, *, #62, .F. ) ;
#88 =( GEOMETRIC_REPRESENTATION_CONTEXT ( 3 ) GLOBAL_UNCERTAINTY_ASSIGNED_CONTEXT ( ( #179 ) ) GLOBAL_UNIT_ASSIGNED_CONTEXT ( ( #42, #84, #139 ) ) REPRESENTATION_CONTEXT ( 'NONE', 'WORKASPACE' ) );
#89 = EDGE_CURVE ( 'NONE', #53, #211, #1, .T. ) ;
#90 = ORIENTED_EDGE ( 'NONE', *, *, #120, .F. ) ;
#91 = ORIENTED_EDGE ( 'NONE', *, *, #162, .T. ) ;
#92 = EDGE_CURVE ( 'NONE', #5, #182, #23, .T. ) ;
#93 = CARTESIAN_POINT ( 'NONE',  ( 1.175660927181459249E-17, 0.000000000000000000, 0.09600000000000001588 ) ) ;
#94 = AXIS2_PLACEMENT_3D ( 'NONE', #44, #9, #174 ) ;
#95 = FACE_OUTER_BOUND ( 'NONE', #105, .T. ) ;
#96 = LENGTH_MEASURE_WITH_UNIT ( LENGTH_MEASURE( 0.02539999999999999897 ), #199 );
#97 = AXIS2_PLACEMENT_3D ( 'NONE', #49, #167, #12 ) ;
#98 = DIRECTION ( 'NONE',  ( 0.000000000000000000, 1.000000000000000000, 0.000000000000000000 ) ) ;
#99 = DIRECTION ( 'NONE',  ( -0.000000000000000000, -1.000000000000000000, -0.000000000000000000 ) ) ;
#100 = FACE_OUTER_BOUND ( 'NONE', #197, .T. ) ;
#101 = MANIFOLD_SOLID_BREP ( 'Boss-Extrude1', #15 ) ;
#102 =( NAMED_UNIT ( * ) PLANE_ANGLE_UNIT ( ) SI_UNIT ( $, .RADIAN. ) );
#103 = ORIENTED_EDGE ( 'NONE', *, *, #178, .T. ) ;
#104 = DIRECTION ( 'NONE',  ( 1.000000000000000000, 0.000000000000000000, 0.000000000000000000 ) ) ;
#105 = EDGE_LOOP ( 'NONE', ( #159, #184, #40, #45 ) ) ;
#106 = MECHANICAL_DESIGN_GEOMETRIC_PRESENTATION_REPRESENTATION (  '', ( #160 ), #137 ) ;
#107 = DIMENSIONAL_EXPONENTS ( 1.000000000000000000, 0.000000000000000000, 0.000000000000000000, 0.000000000000000000, 0.000000000000000000, 0.000000000000000000, 0.000000000000000000 ) ;
#108 = LINE ( 'NONE', #143, #55 ) ;
#109 = ADVANCED_FACE ( 'NONE', ( #219, #82 ), #169, .F. ) ;
#110 = EDGE_LOOP ( 'NONE', ( #103, #157 ) ) ;
#111 = DIRECTION ( 'NONE',  ( -0.000000000000000000, -1.000000000000000000, -0.000000000000000000 ) ) ;
#112 = AXIS2_PLACEMENT_3D ( 'NONE', #63, #185, #13 ) ;
#113 = DIRECTION ( 'NONE',  ( -0.000000000000000000, -1.000000000000000000, -0.000000000000000000 ) ) ;
#114 = ADVANCED_FACE ( 'NONE', ( #203 ), #166, .F. ) ;
#115 = DIRECTION ( 'NONE',  ( 0.000000000000000000, 1.000000000000000000, 0.000000000000000000 ) ) ;
#116 = CARTESIAN_POINT ( 'NONE',  ( 2.296212748401287726E-17, 0.2500000000000000000, 0.1875000000000000278 ) ) ;
#117 = CARTESIAN_POINT ( 'NONE',  ( 0.000000000000000000, 0.2500000000000000000, 0.000000000000000000 ) ) ;
#118 = AXIS2_PLACEMENT_3D ( 'NONE', #51, #147, #73 ) ;
#119 = SURFACE_STYLE_FILL_AREA ( #59 ) ;
#120 = EDGE_CURVE ( 'NONE', #182, #5, #60, .T. ) ;
#121 = CARTESIAN_POINT ( 'NONE',  ( 0.000000000000000000, 0.000000000000000000, 0.000000000000000000 ) ) ;
#122 = AXIS2_PLACEMENT_3D ( 'NONE', #218, #168, #202 ) ;
#123 = DIRECTION ( 'NONE',  ( 0.000000000000000000, 0.000000000000000000, 1.000000000000000000 ) ) ;
#124 = EDGE_LOOP ( 'NONE', ( #192, #90 ) ) ;
#125 = EDGE_LOOP ( 'NONE', ( #161, #87 ) ) ;
#126 = VERTEX_POINT ( 'NONE', #116 ) ;
#127 = PRODUCT_RELATED_PRODUCT_CATEGORY ( 'part', '', ( #208 ) ) ;
#128 = ORIENTED_EDGE ( 'NONE', *, *, #165, .T. ) ;
#129 = SURFACE_STYLE_USAGE ( .BOTH. , #163 ) ;
#130 = VECTOR ( 'NONE', #111, 39.37007874015748143 ) ;
#131 = APPLICATION_CONTEXT ( 'automotive_design' ) ;
#132 = ADVANCED_BREP_SHAPE_REPRESENTATION ( 'am-1700 0.194 ID 0.375 OD 0.250 Long Nylon Spacer', ( #101, #41 ), #88 ) ;
#133 = AXIS2_PLACEMENT_3D ( 'NONE', #117, #98, #11 ) ;
#134 = FACE_BOUND ( 'NONE', #124, .T. ) ;
#135 = DIRECTION ( 'NONE',  ( -0.000000000000000000, -1.000000000000000000, -0.000000000000000000 ) ) ;
#136 = CARTESIAN_POINT ( 'NONE',  ( 0.000000000000000000, 0.2500000000000000000, 0.000000000000000000 ) ) ;
#137 =( GEOMETRIC_REPRESENTATION_CONTEXT ( 3 ) GLOBAL_UNCERTAINTY_ASSIGNED_CONTEXT ( ( #52 ) ) GLOBAL_UNIT_ASSIGNED_CONTEXT ( ( #171, #102, #222 ) ) REPRESENTATION_CONTEXT ( 'NONE', 'WORKASPACE' ) );
#138 = PRODUCT_DEFINITION ( 'UNKNOWN', '', #206, #2 ) ;
#139 =( NAMED_UNIT ( * ) SI_UNIT ( $, .STERADIAN. ) SOLID_ANGLE_UNIT ( ) );
#140 = FILL_AREA_STYLE ('',( #156 ) ) ;
#141 = EDGE_LOOP ( 'NONE', ( #91, #27 ) ) ;
#142 =( LENGTH_UNIT ( ) NAMED_UNIT ( * ) SI_UNIT ( $, .METRE. ) );
#143 = CARTESIAN_POINT ( 'NONE',  ( 0.000000000000000000, 0.2500000000000000000, -0.1875000000000000278 ) ) ;
#144 = VERTEX_POINT ( 'NONE', #36 ) ;
#145 = CIRCLE ( 'NONE', #118, 0.1875000000000000278 ) ;
#146 = LINE ( 'NONE', #8, #130 ) ;
#147 = DIRECTION ( 'NONE',  ( 0.000000000000000000, 1.000000000000000000, 0.000000000000000000 ) ) ;
#148 = DIRECTION ( 'NONE',  ( 0.000000000000000000, -0.000000000000000000, 1.000000000000000000 ) ) ;
#149 = ADVANCED_FACE ( 'NONE', ( #33, #134 ), #48, .T. ) ;
#150 =( NAMED_UNIT ( * ) PLANE_ANGLE_UNIT ( ) SI_UNIT ( $, .RADIAN. ) );
#151 = SHAPE_DEFINITION_REPRESENTATION ( #68, #132 ) ;
#152 = EDGE_CURVE ( 'NONE', #5, #211, #78, .T. ) ;
#153 = DIRECTION ( 'NONE',  ( -0.000000000000000000, -1.000000000000000000, -0.000000000000000000 ) ) ;
#154 = AXIS2_PLACEMENT_3D ( 'NONE', #14, #113, #186 ) ;
#155 = CARTESIAN_POINT ( 'NONE',  ( 0.000000000000000000, 0.2500000000000000000, 0.000000000000000000 ) ) ;
#156 = FILL_AREA_STYLE_COLOUR ( '', #205 ) ;
#157 = ORIENTED_EDGE ( 'NONE', *, *, #31, .T. ) ;
#158 = DIRECTION ( 'NONE',  ( -0.000000000000000000, -1.000000000000000000, -0.000000000000000000 ) ) ;
#159 = ORIENTED_EDGE ( 'NONE', *, *, #19, .F. ) ;
#160 = STYLED_ITEM ( 'NONE', ( #38 ), #132 ) ;
#161 = ORIENTED_EDGE ( 'NONE', *, *, #65, .F. ) ;
#162 = EDGE_CURVE ( 'NONE', #211, #53, #7, .T. ) ;
#163 = SURFACE_SIDE_STYLE ('',( #119 ) ) ;
#164 = CIRCLE ( 'NONE', #201, 0.1875000000000000278 ) ;
#165 = EDGE_CURVE ( 'NONE', #182, #53, #80, .T. ) ;
#166 = CYLINDRICAL_SURFACE ( 'NONE', #154, 0.09600000000000001588 ) ;
#167 = DIRECTION ( 'NONE',  ( 0.000000000000000000, 1.000000000000000000, 0.000000000000000000 ) ) ;
#168 = DIRECTION ( 'NONE',  ( 0.000000000000000000, 1.000000000000000000, 0.000000000000000000 ) ) ;
#169 = PLANE ( 'NONE',  #198 ) ;
#170 = ORIENTED_EDGE ( 'NONE', *, *, #31, .F. ) ;
#171 =( CONVERSION_BASED_UNIT ( 'INCH', #207 ) LENGTH_UNIT ( ) NAMED_UNIT ( #107 ) );
#172 = AXIS2_PLACEMENT_3D ( 'NONE', #136, #16, #191 ) ;
#173 = SURFACE_STYLE_FILL_AREA ( #140 ) ;
#174 = DIRECTION ( 'NONE',  ( 0.000000000000000000, 0.000000000000000000, -1.000000000000000000 ) ) ;
#175 = CARTESIAN_POINT ( 'NONE',  ( 0.000000000000000000, 0.000000000000000000, -0.09600000000000001588 ) ) ;
#176 = AXIS2_PLACEMENT_3D ( 'NONE', #204, #81, #189 ) ;
#177 = ORIENTED_EDGE ( 'NONE', *, *, #152, .F. ) ;
#178 = EDGE_CURVE ( 'NONE', #6, #126, #50, .T. ) ;
#179 = UNCERTAINTY_MEASURE_WITH_UNIT (LENGTH_MEASURE( 1.000000000000000082E-05 ), #42, 'distance_accuracy_value', 'NONE');
#180 = PRODUCT_CONTEXT ( 'NONE', #131, 'mechanical' ) ;
#181 = ORIENTED_EDGE ( 'NONE', *, *, #62, .T. ) ;
#182 = VERTEX_POINT ( 'NONE', #35 ) ;
#183 = ADVANCED_FACE ( 'NONE', ( #100 ), #66, .T. ) ;
#184 = ORIENTED_EDGE ( 'NONE', *, *, #178, .F. ) ;
#185 = DIRECTION ( 'NONE',  ( 0.000000000000000000, 1.000000000000000000, 0.000000000000000000 ) ) ;
#186 = DIRECTION ( 'NONE',  ( 0.000000000000000000, 0.000000000000000000, -1.000000000000000000 ) ) ;
#187 = CARTESIAN_POINT ( 'NONE',  ( 0.000000000000000000, 0.2500000000000000000, -0.09600000000000001588 ) ) ;
#188 = VECTOR ( 'NONE', #135, 39.37007874015748143 ) ;
#189 = DIRECTION ( 'NONE',  ( 0.000000000000000000, 0.000000000000000000, 1.000000000000000000 ) ) ;
#190 = DIRECTION ( 'NONE',  ( 0.000000000000000000, 0.000000000000000000, -1.000000000000000000 ) ) ;
#191 = DIRECTION ( 'NONE',  ( 0.000000000000000000, 0.000000000000000000, -1.000000000000000000 ) ) ;
#192 = ORIENTED_EDGE ( 'NONE', *, *, #92, .F. ) ;
#193 = ORIENTED_EDGE ( 'NONE', *, *, #152, .T. ) ;
#194 = APPLICATION_PROTOCOL_DEFINITION ( 'draft international standard', 'automotive_design', 1998, #131 ) ;
#195 = EDGE_LOOP ( 'NONE', ( #25, #128, #39, #177 ) ) ;
#196 = CARTESIAN_POINT ( 'NONE',  ( 0.000000000000000000, 0.000000000000000000, 0.000000000000000000 ) ) ;
#197 = EDGE_LOOP ( 'NONE', ( #170, #54, #181, #3 ) ) ;
#198 = AXIS2_PLACEMENT_3D ( 'NONE', #76, #115, #148 ) ;
#199 =( LENGTH_UNIT ( ) NAMED_UNIT ( * ) SI_UNIT ( $, .METRE. ) );
#200 = ADVANCED_FACE ( 'NONE', ( #86 ), #18, .F. ) ;
#201 = AXIS2_PLACEMENT_3D ( 'NONE', #155, #212, #30 ) ;
#202 = DIRECTION ( 'NONE',  ( 0.000000000000000000, 0.000000000000000000, 1.000000000000000000 ) ) ;
#203 = FACE_OUTER_BOUND ( 'NONE', #57, .T. ) ;
#204 = CARTESIAN_POINT ( 'NONE',  ( 0.000000000000000000, 0.2500000000000000000, 0.000000000000000000 ) ) ;
#205 = COLOUR_RGB ( '',1.000000000000000000, 1.000000000000000000, 1.000000000000000000 ) ;
#206 = PRODUCT_DEFINITION_FORMATION_WITH_SPECIFIED_SOURCE ( 'ANY', '', #208, .NOT_KNOWN. ) ;
#207 = LENGTH_MEASURE_WITH_UNIT ( LENGTH_MEASURE( 0.02539999999999999897 ), #209 );
#208 = PRODUCT ( 'am-1700 0.194 ID 0.375 OD 0.250 Long Nylon Spacer', 'am-1700 0.194 ID 0.375 OD 0.250 Long Nylon Spacer', '', ( #180 ) ) ;
#209 =( LENGTH_UNIT ( ) NAMED_UNIT ( * ) SI_UNIT ( $, .METRE. ) );
#210 = APPLICATION_CONTEXT ( 'automotive_design' ) ;
#211 = VERTEX_POINT ( 'NONE', #175 ) ;
#212 = DIRECTION ( 'NONE',  ( 0.000000000000000000, 1.000000000000000000, 0.000000000000000000 ) ) ;
#213 = ORIENTED_EDGE ( 'NONE', *, *, #89, .F. ) ;
#214 = VERTEX_POINT ( 'NONE', #24 ) ;
#215 = FILL_AREA_STYLE_COLOUR ( '', #83 ) ;
#216 = AXIS2_PLACEMENT_3D ( 'NONE', #196, #75, #123 ) ;
#217 = MECHANICAL_DESIGN_GEOMETRIC_PRESENTATION_REPRESENTATION (  '', ( #67 ), #70 ) ;
#218 = CARTESIAN_POINT ( 'NONE',  ( 0.000000000000000000, 0.2500000000000000000, 0.000000000000000000 ) ) ;
#219 = FACE_OUTER_BOUND ( 'NONE', #125, .T. ) ;
#220 = DIRECTION ( 'NONE',  ( 0.000000000000000000, 0.000000000000000000, 1.000000000000000000 ) ) ;
#221 = PRESENTATION_LAYER_ASSIGNMENT (  '', '', ( #67 ) ) ;
#222 =( NAMED_UNIT ( * ) SI_UNIT ( $, .STERADIAN. ) SOLID_ANGLE_UNIT ( ) );
#223 = SURFACE_SIDE_STYLE ('',( #173 ) ) ;
ENDSEC;
END-ISO-10303-21;
