ISO-10303-21;
HEADER;
FILE_DESCRIPTION (( 'STEP AP214' ),
    '1' );
FILE_NAME ('am-3870_BasePlate FTC Sizing Box Base Plate.STEP',
    '2024-01-30T16:13:09',
    ( '' ),
    ( '' ),
    'SwSTEP 2.0',
    'SolidWorks 2024',
    '' );
FILE_SCHEMA (( 'AUTOMOTIVE_DESIGN' ));
ENDSEC;

DATA;
#1 = SURFACE_SIDE_STYLE ('',( #236 ) ) ;
#2 = AXIS2_PLACEMENT_3D ( 'NONE', #202, #172, #47 ) ;
#3 = DIRECTION ( 'NONE',  ( 1.000000000000000000, 0.000000000000000000, 0.000000000000000000 ) ) ;
#4 = CARTESIAN_POINT ( 'NONE',  ( 0.1260000000000000009, 0.2200000000000000011, -17.87400000000000233 ) ) ;
#5 = VERTEX_POINT ( 'NONE', #247 ) ;
#6 = AXIS2_PLACEMENT_3D ( 'NONE', #224, #276, #201 ) ;
#7 = DIRECTION ( 'NONE',  ( 0.000000000000000000, -0.000000000000000000, -1.000000000000000000 ) ) ;
#8 = EDGE_LOOP ( 'NONE', ( #21, #98, #246, #169 ) ) ;
#9 = VECTOR ( 'NONE', #309, 39.37007874015748143 ) ;
#10 = CARTESIAN_POINT ( 'NONE',  ( 17.87400000000000233, 0.000000000000000000, 0.000000000000000000 ) ) ;
#11 = VERTEX_POINT ( 'NONE', #223 ) ;
#12 = EDGE_CURVE ( 'NONE', #244, #277, #305, .T. ) ;
#13 = CARTESIAN_POINT ( 'NONE',  ( 0.1260000000000000009, 0.2200000000000000011, 0.000000000000000000 ) ) ;
#14 = ORIENTED_EDGE ( 'NONE', *, *, #175, .F. ) ;
#15 =( CONVERSION_BASED_UNIT ( 'INCH', #92 ) LENGTH_UNIT ( ) NAMED_UNIT ( #306 ) );
#16 = EDGE_LOOP ( 'NONE', ( #59, #20, #221, #65 ) ) ;
#17 = AXIS2_PLACEMENT_3D ( 'NONE', #231, #282, #154 ) ;
#18 = DIRECTION ( 'NONE',  ( 0.000000000000000000, -1.000000000000000000, 0.000000000000000000 ) ) ;
#19 = ORIENTED_EDGE ( 'NONE', *, *, #318, .F. ) ;
#20 = ORIENTED_EDGE ( 'NONE', *, *, #264, .F. ) ;
#21 = ORIENTED_EDGE ( 'NONE', *, *, #53, .T. ) ;
#22 = FACE_OUTER_BOUND ( 'NONE', #68, .T. ) ;
#23 = CIRCLE ( 'NONE', #181, 0.1259999999999996956 ) ;
#24 = PRODUCT_DEFINITION ( 'UNKNOWN', '', #185, #281 ) ;
#25 = FACE_OUTER_BOUND ( 'NONE', #16, .T. ) ;
#26 = PLANE ( 'NONE',  #41 ) ;
#27 = CARTESIAN_POINT ( 'NONE',  ( 0.1260000000000000009, 0.000000000000000000, 0.000000000000000000 ) ) ;
#28 = ADVANCED_FACE ( 'NONE', ( #199 ), #125, .F. ) ;
#29 = LINE ( 'NONE', #138, #262 ) ;
#30 = AXIS2_PLACEMENT_3D ( 'NONE', #110, #192, #317 ) ;
#31 = DIRECTION ( 'NONE',  ( 0.000000000000000000, -1.000000000000000000, 0.000000000000000000 ) ) ;
#32 = ORIENTED_EDGE ( 'NONE', *, *, #229, .T. ) ;
#33 = CARTESIAN_POINT ( 'NONE',  ( 0.000000000000000000, 0.2200000000000000011, -18.00000000000000000 ) ) ;
#34 = ORIENTED_EDGE ( 'NONE', *, *, #285, .F. ) ;
#35 = CARTESIAN_POINT ( 'NONE',  ( 17.87400000000000233, 0.2200000000000000011, -18.00000000000000000 ) ) ;
#36 = AXIS2_PLACEMENT_3D ( 'NONE', #73, #178, #328 ) ;
#37 = ORIENTED_EDGE ( 'NONE', *, *, #46, .F. ) ;
#38 = DIRECTION ( 'NONE',  ( 0.000000000000000000, 0.000000000000000000, -1.000000000000000000 ) ) ;
#39 = ORIENTED_EDGE ( 'NONE', *, *, #12, .F. ) ;
#40 = VERTEX_POINT ( 'NONE', #151 ) ;
#41 = AXIS2_PLACEMENT_3D ( 'NONE', #78, #51, #99 ) ;
#42 = CARTESIAN_POINT ( 'NONE',  ( 0.000000000000000000, 0.000000000000000000, -18.00000000000000000 ) ) ;
#43 =( LENGTH_UNIT ( ) NAMED_UNIT ( * ) SI_UNIT ( $, .METRE. ) );
#44 = FACE_OUTER_BOUND ( 'NONE', #109, .T. ) ;
#45 = DIMENSIONAL_EXPONENTS ( 1.000000000000000000, 0.000000000000000000, 0.000000000000000000, 0.000000000000000000, 0.000000000000000000, 0.000000000000000000, 0.000000000000000000 ) ;
#46 = EDGE_CURVE ( 'NONE', #277, #322, #139, .T. ) ;
#47 = DIRECTION ( 'NONE',  ( 0.000000000000000000, 0.000000000000000000, 1.000000000000000000 ) ) ;
#48 = EDGE_CURVE ( 'NONE', #89, #189, #324, .T. ) ;
#49 = PLANE ( 'NONE',  #132 ) ;
#50 = PRESENTATION_LAYER_ASSIGNMENT (  '', '', ( #203 ) ) ;
#51 = DIRECTION ( 'NONE',  ( 1.000000000000000000, -0.000000000000000000, 0.000000000000000000 ) ) ;
#52 = LINE ( 'NONE', #128, #278 ) ;
#53 = EDGE_CURVE ( 'NONE', #5, #11, #249, .T. ) ;
#54 = CARTESIAN_POINT ( 'NONE',  ( 17.87400000000000233, 0.2200000000000000011, -0.1260000000000000009 ) ) ;
#55 = EDGE_CURVE ( 'NONE', #144, #204, #251, .T. ) ;
#56 = FACE_OUTER_BOUND ( 'NONE', #186, .T. ) ;
#57 = VECTOR ( 'NONE', #316, 39.37007874015748143 ) ;
#58 = DIRECTION ( 'NONE',  ( 1.000000000000000000, 0.000000000000000000, -0.000000000000000000 ) ) ;
#59 = ORIENTED_EDGE ( 'NONE', *, *, #179, .F. ) ;
#60 = CARTESIAN_POINT ( 'NONE',  ( 0.000000000000000000, 0.2200000000000000011, -0.1260000000000000009 ) ) ;
#61 = ORIENTED_EDGE ( 'NONE', *, *, #100, .T. ) ;
#62 = DIRECTION ( 'NONE',  ( -0.000000000000000000, -1.000000000000000000, 0.000000000000000000 ) ) ;
#63 = ORIENTED_EDGE ( 'NONE', *, *, #260, .T. ) ;
#64 = AXIS2_PLACEMENT_3D ( 'NONE', #255, #146, #319 ) ;
#65 = ORIENTED_EDGE ( 'NONE', *, *, #332, .F. ) ;
#66 = ORIENTED_EDGE ( 'NONE', *, *, #55, .F. ) ;
#67 =( NAMED_UNIT ( * ) SI_UNIT ( $, .STERADIAN. ) SOLID_ANGLE_UNIT ( ) );
#68 = EDGE_LOOP ( 'NONE', ( #228, #14, #160, #34 ) ) ;
#69 = DIRECTION ( 'NONE',  ( -0.000000000000000000, -0.000000000000000000, 1.000000000000000000 ) ) ;
#70 = FACE_OUTER_BOUND ( 'NONE', #205, .T. ) ;
#71 = ADVANCED_FACE ( 'NONE', ( #44 ), #150, .F. ) ;
#72 = VECTOR ( 'NONE', #261, 39.37007874015748143 ) ;
#73 = CARTESIAN_POINT ( 'NONE',  ( 0.1260000000000000009, 0.2200000000000000011, -17.87400000000000233 ) ) ;
#74 = CYLINDRICAL_SURFACE ( 'NONE', #36, 0.1259999999999996956 ) ;
#75 = PLANE ( 'NONE',  #158 ) ;
#76 =( GEOMETRIC_REPRESENTATION_CONTEXT ( 3 ) GLOBAL_UNCERTAINTY_ASSIGNED_CONTEXT ( ( #232 ) ) GLOBAL_UNIT_ASSIGNED_CONTEXT ( ( #320, #173, #67 ) ) REPRESENTATION_CONTEXT ( 'NONE', 'WORKASPACE' ) );
#77 = VECTOR ( 'NONE', #196, 39.37007874015748143 ) ;
#78 = CARTESIAN_POINT ( 'NONE',  ( 0.000000000000000000, 0.2200000000000000011, 0.000000000000000000 ) ) ;
#79 = CARTESIAN_POINT ( 'NONE',  ( 0.000000000000000000, 0.000000000000000000, -0.1260000000000000009 ) ) ;
#80 = EDGE_CURVE ( 'NONE', #170, #5, #230, .T. ) ;
#81 = LINE ( 'NONE', #314, #57 ) ;
#82 = VERTEX_POINT ( 'NONE', #279 ) ;
#83 = LINE ( 'NONE', #33, #101 ) ;
#84 = ORIENTED_EDGE ( 'NONE', *, *, #214, .F. ) ;
#85 = CARTESIAN_POINT ( 'NONE',  ( 18.00000000000000000, 0.000000000000000000, 0.000000000000000000 ) ) ;
#86 = ORIENTED_EDGE ( 'NONE', *, *, #271, .T. ) ;
#87 = CARTESIAN_POINT ( 'NONE',  ( 18.00000000000000000, 0.2200000000000000011, -17.87400000000000233 ) ) ;
#88 =( LENGTH_UNIT ( ) NAMED_UNIT ( * ) SI_UNIT ( $, .METRE. ) );
#89 = VERTEX_POINT ( 'NONE', #27 ) ;
#90 = AXIS2_PLACEMENT_3D ( 'NONE', #253, #126, #308 ) ;
#91 = ADVANCED_FACE ( 'NONE', ( #22 ), #74, .T. ) ;
#92 = LENGTH_MEASURE_WITH_UNIT ( LENGTH_MEASURE( 0.02539999999999999897 ), #88 );
#93 = UNCERTAINTY_MEASURE_WITH_UNIT (LENGTH_MEASURE( 1.000000000000000082E-05 ), #15, 'distance_accuracy_value', 'NONE');
#94 = ORIENTED_EDGE ( 'NONE', *, *, #48, .F. ) ;
#95 = ADVANCED_FACE ( 'NONE', ( #331 ), #26, .F. ) ;
#96 = CARTESIAN_POINT ( 'NONE',  ( 0.000000000000000000, 0.000000000000000000, 0.000000000000000000 ) ) ;
#97 = CIRCLE ( 'NONE', #222, 0.1259999999999996956 ) ;
#98 = ORIENTED_EDGE ( 'NONE', *, *, #175, .T. ) ;
#99 = DIRECTION ( 'NONE',  ( 0.000000000000000000, 0.000000000000000000, -1.000000000000000000 ) ) ;
#100 = EDGE_CURVE ( 'NONE', #118, #162, #52, .T. ) ;
#101 = VECTOR ( 'NONE', #105, 39.37007874015748143 ) ;
#102 = FACE_OUTER_BOUND ( 'NONE', #121, .T. ) ;
#103 = VECTOR ( 'NONE', #69, 39.37007874015748143 ) ;
#104 = EDGE_CURVE ( 'NONE', #144, #11, #227, .T. ) ;
#105 = DIRECTION ( 'NONE',  ( -1.000000000000000000, -0.000000000000000000, -0.000000000000000000 ) ) ;
#106 = DIRECTION ( 'NONE',  ( -0.000000000000000000, 1.000000000000000000, -0.000000000000000000 ) ) ;
#107 = ORIENTED_EDGE ( 'NONE', *, *, #46, .T. ) ;
#108 = DIRECTION ( 'NONE',  ( 0.000000000000000000, 0.000000000000000000, -1.000000000000000000 ) ) ;
#109 = EDGE_LOOP ( 'NONE', ( #215, #291, #142, #217 ) ) ;
#110 = CARTESIAN_POINT ( 'NONE',  ( 0.1260000000000000009, 0.000000000000000000, -0.1260000000000000009 ) ) ;
#111 = ORIENTED_EDGE ( 'NONE', *, *, #207, .T. ) ;
#112 = DIRECTION ( 'NONE',  ( -0.000000000000000000, 1.000000000000000000, -0.000000000000000000 ) ) ;
#113 = ADVANCED_BREP_SHAPE_REPRESENTATION ( 'am-3870_BasePlate FTC Sizing Box Base Plate', ( #286, #6 ), #145 ) ;
#114 = EDGE_LOOP ( 'NONE', ( #39, #219, #193, #32 ) ) ;
#115 = CARTESIAN_POINT ( 'NONE',  ( 17.87400000000000233, 0.2200000000000000011, -17.87400000000000233 ) ) ;
#116 = ORIENTED_EDGE ( 'NONE', *, *, #53, .F. ) ;
#117 = ADVANCED_FACE ( 'NONE', ( #102 ), #49, .T. ) ;
#118 = VERTEX_POINT ( 'NONE', #129 ) ;
#119 = VECTOR ( 'NONE', #3, 39.37007874015748143 ) ;
#120 = LINE ( 'NONE', #274, #257 ) ;
#121 = EDGE_LOOP ( 'NONE', ( #66, #302, #116, #174, #130, #265, #94, #111 ) ) ;
#122 = SHAPE_DEFINITION_REPRESENTATION ( #134, #113 ) ;
#123 = ORIENTED_EDGE ( 'NONE', *, *, #80, .F. ) ;
#124 = AXIS2_PLACEMENT_3D ( 'NONE', #234, #156, #284 ) ;
#125 = PLANE ( 'NONE',  #2 ) ;
#126 = DIRECTION ( 'NONE',  ( 0.000000000000000000, 0.000000000000000000, -1.000000000000000000 ) ) ;
#127 = AXIS2_PLACEMENT_3D ( 'NONE', #115, #18, #299 ) ;
#128 = CARTESIAN_POINT ( 'NONE',  ( 18.00000000000000000, 0.2200000000000000011, 0.000000000000000000 ) ) ;
#129 = CARTESIAN_POINT ( 'NONE',  ( 18.00000000000000000, 0.2200000000000000011, -0.1260000000000000009 ) ) ;
#130 = ORIENTED_EDGE ( 'NONE', *, *, #272, .F. ) ;
#131 = FILL_AREA_STYLE ('',( #270 ) ) ;
#132 = AXIS2_PLACEMENT_3D ( 'NONE', #153, #259, #210 ) ;
#133 = FACE_OUTER_BOUND ( 'NONE', #326, .T. ) ;
#134 = PRODUCT_DEFINITION_SHAPE ( 'NONE', 'NONE',  #24 ) ;
#135 = CARTESIAN_POINT ( 'NONE',  ( 0.000000000000000000, 0.2200000000000000011, -17.87400000000000233 ) ) ;
#136 = CYLINDRICAL_SURFACE ( 'NONE', #283, 0.1260000000000000009 ) ;
#137 = VERTEX_POINT ( 'NONE', #327 ) ;
#138 = CARTESIAN_POINT ( 'NONE',  ( 0.1260000000000000009, 0.2200000000000000011, -18.00000000000000000 ) ) ;
#139 = CIRCLE ( 'NONE', #64, 0.1260000000000000009 ) ;
#140 = VERTEX_POINT ( 'NONE', #206 ) ;
#141 = ADVANCED_FACE ( 'NONE', ( #25 ), #233, .T. ) ;
#142 = ORIENTED_EDGE ( 'NONE', *, *, #235, .F. ) ;
#143 = EDGE_CURVE ( 'NONE', #40, #189, #208, .T. ) ;
#144 = VERTEX_POINT ( 'NONE', #333 ) ;
#145 =( GEOMETRIC_REPRESENTATION_CONTEXT ( 3 ) GLOBAL_UNCERTAINTY_ASSIGNED_CONTEXT ( ( #93 ) ) GLOBAL_UNIT_ASSIGNED_CONTEXT ( ( #15, #304, #194 ) ) REPRESENTATION_CONTEXT ( 'NONE', 'WORKASPACE' ) );
#146 = DIRECTION ( 'NONE',  ( -0.000000000000000000, 1.000000000000000000, -0.000000000000000000 ) ) ;
#147 = AXIS2_PLACEMENT_3D ( 'NONE', #4, #240, #312 ) ;
#148 = PRODUCT_CONTEXT ( 'NONE', #323, 'mechanical' ) ;
#149 = DIRECTION ( 'NONE',  ( -1.000000000000000000, -0.000000000000000000, -0.000000000000000000 ) ) ;
#150 = PLANE ( 'NONE',  #90 ) ;
#151 = CARTESIAN_POINT ( 'NONE',  ( 18.00000000000000000, 0.000000000000000000, -0.1260000000000000009 ) ) ;
#152 = ADVANCED_FACE ( 'NONE', ( #209 ), #75, .F. ) ;
#153 = CARTESIAN_POINT ( 'NONE',  ( 0.000000000000000000, 0.000000000000000000, 0.000000000000000000 ) ) ;
#154 = DIRECTION ( 'NONE',  ( 0.000000000000000000, 0.000000000000000000, -1.000000000000000000 ) ) ;
#155 = CIRCLE ( 'NONE', #147, 0.1259999999999996956 ) ;
#156 = DIRECTION ( 'NONE',  ( 0.000000000000000000, -1.000000000000000000, 0.000000000000000000 ) ) ;
#157 = CARTESIAN_POINT ( 'NONE',  ( 17.87400000000000233, 0.000000000000000000, -17.87400000000000233 ) ) ;
#158 = AXIS2_PLACEMENT_3D ( 'NONE', #184, #311, #58 ) ;
#159 = CARTESIAN_POINT ( 'NONE',  ( 18.00000000000000000, 0.2200000000000000011, -17.87400000000000233 ) ) ;
#160 = ORIENTED_EDGE ( 'NONE', *, *, #104, .F. ) ;
#161 = LINE ( 'NONE', #290, #119 ) ;
#162 = VERTEX_POINT ( 'NONE', #159 ) ;
#163 = CARTESIAN_POINT ( 'NONE',  ( 0.000000000000000000, 0.2200000000000000011, -17.87400000000000233 ) ) ;
#164 = EDGE_LOOP ( 'NONE', ( #269, #63, #293, #273 ) ) ;
#165 = PRODUCT_RELATED_PRODUCT_CATEGORY ( 'part', '', ( #197 ) ) ;
#166 = CARTESIAN_POINT ( 'NONE',  ( 17.87400000000000233, 0.2200000000000000011, -17.87400000000000233 ) ) ;
#167 = AXIS2_PLACEMENT_3D ( 'NONE', #307, #256, #180 ) ;
#168 = EDGE_CURVE ( 'NONE', #322, #89, #216, .T. ) ;
#169 = ORIENTED_EDGE ( 'NONE', *, *, #80, .T. ) ;
#170 = VERTEX_POINT ( 'NONE', #35 ) ;
#171 = LENGTH_MEASURE_WITH_UNIT ( LENGTH_MEASURE( 0.02539999999999999897 ), #43 );
#172 = DIRECTION ( 'NONE',  ( -1.000000000000000000, 0.000000000000000000, 0.000000000000000000 ) ) ;
#173 =( NAMED_UNIT ( * ) PLANE_ANGLE_UNIT ( ) SI_UNIT ( $, .RADIAN. ) );
#174 = ORIENTED_EDGE ( 'NONE', *, *, #214, .T. ) ;
#175 = EDGE_CURVE ( 'NONE', #11, #82, #29, .T. ) ;
#176 = CIRCLE ( 'NONE', #30, 0.1260000000000000009 ) ;
#177 = ADVANCED_FACE ( 'NONE', ( #133 ), #136, .T. ) ;
#178 = DIRECTION ( 'NONE',  ( -0.000000000000000000, -1.000000000000000000, 0.000000000000000000 ) ) ;
#179 = EDGE_CURVE ( 'NONE', #137, #118, #211, .T. ) ;
#180 = DIRECTION ( 'NONE',  ( 0.000000000000000000, 0.000000000000000000, -1.000000000000000000 ) ) ;
#181 = AXIS2_PLACEMENT_3D ( 'NONE', #166, #252, #38 ) ;
#182 = CARTESIAN_POINT ( 'NONE',  ( 17.87400000000000233, 0.2200000000000000011, -18.00000000000000000 ) ) ;
#183 = DIRECTION ( 'NONE',  ( 0.000000000000000000, 0.000000000000000000, -1.000000000000000000 ) ) ;
#184 = CARTESIAN_POINT ( 'NONE',  ( 0.000000000000000000, 0.2200000000000000011, -18.00000000000000000 ) ) ;
#185 = PRODUCT_DEFINITION_FORMATION_WITH_SPECIFIED_SOURCE ( 'ANY', '', #197, .NOT_KNOWN. ) ;
#186 = EDGE_LOOP ( 'NONE', ( #86, #303, #267, #107, #258, #225, #61, #315 ) ) ;
#187 = COLOUR_RGB ( '',0.7921568627450980005, 0.8196078431372548767, 0.9333333333333333481 ) ;
#188 = LINE ( 'NONE', #266, #72 ) ;
#189 = VERTEX_POINT ( 'NONE', #10 ) ;
#190 = LINE ( 'NONE', #87, #248 ) ;
#191 = ORIENTED_EDGE ( 'NONE', *, *, #260, .F. ) ;
#192 = DIRECTION ( 'NONE',  ( 0.000000000000000000, -1.000000000000000000, 0.000000000000000000 ) ) ;
#193 = ORIENTED_EDGE ( 'NONE', *, *, #55, .T. ) ;
#194 =( NAMED_UNIT ( * ) SI_UNIT ( $, .STERADIAN. ) SOLID_ANGLE_UNIT ( ) );
#195 = VECTOR ( 'NONE', #321, 39.37007874015748143 ) ;
#196 = DIRECTION ( 'NONE',  ( 1.000000000000000000, 0.000000000000000000, 0.000000000000000000 ) ) ;
#197 = PRODUCT ( 'am-3870_BasePlate FTC Sizing Box Base Plate', 'am-3870_BasePlate FTC Sizing Box Base Plate', '', ( #148 ) ) ;
#198 = PRESENTATION_STYLE_ASSIGNMENT (( #212 ) ) ;
#199 = FACE_OUTER_BOUND ( 'NONE', #164, .T. ) ;
#200 = ADVANCED_FACE ( 'NONE', ( #56 ), #268, .F. ) ;
#201 = DIRECTION ( 'NONE',  ( 1.000000000000000000, 0.000000000000000000, 0.000000000000000000 ) ) ;
#202 = CARTESIAN_POINT ( 'NONE',  ( 18.00000000000000000, 0.2200000000000000011, 0.000000000000000000 ) ) ;
#203 = STYLED_ITEM ( 'NONE', ( #198 ), #286 ) ;
#204 = VERTEX_POINT ( 'NONE', #79 ) ;
#205 = EDGE_LOOP ( 'NONE', ( #19, #191, #84, #123 ) ) ;
#206 = CARTESIAN_POINT ( 'NONE',  ( 18.00000000000000000, 0.000000000000000000, -17.87400000000000233 ) ) ;
#207 = EDGE_CURVE ( 'NONE', #89, #204, #176, .T. ) ;
#208 = CIRCLE ( 'NONE', #17, 0.1260000000000000009 ) ;
#209 = FACE_OUTER_BOUND ( 'NONE', #8, .T. ) ;
#210 = DIRECTION ( 'NONE',  ( 0.000000000000000000, -0.000000000000000000, -1.000000000000000000 ) ) ;
#211 = CIRCLE ( 'NONE', #254, 0.1260000000000000009 ) ;
#212 = SURFACE_STYLE_USAGE ( .BOTH. , #1 ) ;
#213 = LINE ( 'NONE', #163, #330 ) ;
#214 = EDGE_CURVE ( 'NONE', #5, #140, #97, .T. ) ;
#215 = ORIENTED_EDGE ( 'NONE', *, *, #48, .T. ) ;
#216 = LINE ( 'NONE', #287, #310 ) ;
#217 = ORIENTED_EDGE ( 'NONE', *, *, #168, .T. ) ;
#218 = DIRECTION ( 'NONE',  ( 0.000000000000000000, -1.000000000000000000, 0.000000000000000000 ) ) ;
#219 = ORIENTED_EDGE ( 'NONE', *, *, #285, .T. ) ;
#220 = DIRECTION ( 'NONE',  ( -0.000000000000000000, 1.000000000000000000, -0.000000000000000000 ) ) ;
#221 = ORIENTED_EDGE ( 'NONE', *, *, #143, .F. ) ;
#222 = AXIS2_PLACEMENT_3D ( 'NONE', #157, #218, #108 ) ;
#223 = CARTESIAN_POINT ( 'NONE',  ( 0.1260000000000000009, 0.000000000000000000, -18.00000000000000000 ) ) ;
#224 = CARTESIAN_POINT ( 'NONE',  ( 0.000000000000000000, 0.000000000000000000, 0.000000000000000000 ) ) ;
#225 = ORIENTED_EDGE ( 'NONE', *, *, #179, .T. ) ;
#226 = CARTESIAN_POINT ( 'NONE',  ( 0.000000000000000000, 0.2200000000000000011, 0.000000000000000000 ) ) ;
#227 = CIRCLE ( 'NONE', #124, 0.1259999999999996956 ) ;
#228 = ORIENTED_EDGE ( 'NONE', *, *, #238, .F. ) ;
#229 = EDGE_CURVE ( 'NONE', #204, #277, #188, .T. ) ;
#230 = LINE ( 'NONE', #182, #9 ) ;
#231 = CARTESIAN_POINT ( 'NONE',  ( 17.87400000000000233, 0.000000000000000000, -0.1260000000000000009 ) ) ;
#232 = UNCERTAINTY_MEASURE_WITH_UNIT (LENGTH_MEASURE( 1.000000000000000082E-05 ), #320, 'distance_accuracy_value', 'NONE');
#233 = CYLINDRICAL_SURFACE ( 'NONE', #167, 0.1260000000000000009 ) ;
#234 = CARTESIAN_POINT ( 'NONE',  ( 0.1260000000000000009, 0.000000000000000000, -17.87400000000000233 ) ) ;
#235 = EDGE_CURVE ( 'NONE', #322, #137, #161, .T. ) ;
#236 = SURFACE_STYLE_FILL_AREA ( #131 ) ;
#237 = CLOSED_SHELL ( 'NONE', ( #95, #71, #28, #152, #200, #117, #91, #329, #141, #177 ) ) ;
#238 = EDGE_CURVE ( 'NONE', #82, #244, #155, .T. ) ;
#239 = CARTESIAN_POINT ( 'NONE',  ( 0.000000000000000000, 0.2200000000000000011, 0.000000000000000000 ) ) ;
#240 = DIRECTION ( 'NONE',  ( -0.000000000000000000, 1.000000000000000000, -0.000000000000000000 ) ) ;
#241 = CARTESIAN_POINT ( 'NONE',  ( 0.1260000000000000009, 0.2200000000000000011, -0.1260000000000000009 ) ) ;
#242 = MECHANICAL_DESIGN_GEOMETRIC_PRESENTATION_REPRESENTATION (  '', ( #203 ), #76 ) ;
#243 = DIRECTION ( 'NONE',  ( 0.000000000000000000, -1.000000000000000000, 0.000000000000000000 ) ) ;
#244 = VERTEX_POINT ( 'NONE', #135 ) ;
#245 = CYLINDRICAL_SURFACE ( 'NONE', #127, 0.1259999999999996956 ) ;
#246 = ORIENTED_EDGE ( 'NONE', *, *, #271, .F. ) ;
#247 = CARTESIAN_POINT ( 'NONE',  ( 17.87400000000000233, 0.000000000000000000, -18.00000000000000000 ) ) ;
#248 = VECTOR ( 'NONE', #106, 39.37007874015748143 ) ;
#249 = LINE ( 'NONE', #42, #325 ) ;
#250 = APPLICATION_PROTOCOL_DEFINITION ( 'draft international standard', 'automotive_design', 1998, #298 ) ;
#251 = LINE ( 'NONE', #96, #103 ) ;
#252 = DIRECTION ( 'NONE',  ( -0.000000000000000000, 1.000000000000000000, -0.000000000000000000 ) ) ;
#253 = CARTESIAN_POINT ( 'NONE',  ( 0.000000000000000000, 0.2200000000000000011, 0.000000000000000000 ) ) ;
#254 = AXIS2_PLACEMENT_3D ( 'NONE', #54, #220, #288 ) ;
#255 = CARTESIAN_POINT ( 'NONE',  ( 0.1260000000000000009, 0.2200000000000000011, -0.1260000000000000009 ) ) ;
#256 = DIRECTION ( 'NONE',  ( 0.000000000000000000, -1.000000000000000000, 0.000000000000000000 ) ) ;
#257 = VECTOR ( 'NONE', #296, 39.37007874015748143 ) ;
#258 = ORIENTED_EDGE ( 'NONE', *, *, #235, .T. ) ;
#259 = DIRECTION ( 'NONE',  ( 0.000000000000000000, -1.000000000000000000, 0.000000000000000000 ) ) ;
#260 = EDGE_CURVE ( 'NONE', #140, #162, #190, .T. ) ;
#261 = DIRECTION ( 'NONE',  ( 0.000000000000000000, 1.000000000000000000, -0.000000000000000000 ) ) ;
#262 = VECTOR ( 'NONE', #112, 39.37007874015748143 ) ;
#263 = DIRECTION ( 'NONE',  ( 0.000000000000000000, -1.000000000000000000, 0.000000000000000000 ) ) ;
#264 = EDGE_CURVE ( 'NONE', #189, #137, #81, .T. ) ;
#265 = ORIENTED_EDGE ( 'NONE', *, *, #143, .T. ) ;
#266 = CARTESIAN_POINT ( 'NONE',  ( 0.000000000000000000, 0.2200000000000000011, -0.1260000000000000009 ) ) ;
#267 = ORIENTED_EDGE ( 'NONE', *, *, #12, .T. ) ;
#268 = PLANE ( 'NONE',  #295 ) ;
#269 = ORIENTED_EDGE ( 'NONE', *, *, #272, .T. ) ;
#270 = FILL_AREA_STYLE_COLOUR ( '', #187 ) ;
#271 = EDGE_CURVE ( 'NONE', #170, #82, #83, .T. ) ;
#272 = EDGE_CURVE ( 'NONE', #40, #140, #294, .T. ) ;
#273 = ORIENTED_EDGE ( 'NONE', *, *, #332, .T. ) ;
#274 = CARTESIAN_POINT ( 'NONE',  ( 18.00000000000000000, 0.2200000000000000011, -0.1260000000000000009 ) ) ;
#275 = ORIENTED_EDGE ( 'NONE', *, *, #168, .F. ) ;
#276 = DIRECTION ( 'NONE',  ( 0.000000000000000000, 0.000000000000000000, 1.000000000000000000 ) ) ;
#277 = VERTEX_POINT ( 'NONE', #60 ) ;
#278 = VECTOR ( 'NONE', #280, 39.37007874015748143 ) ;
#279 = CARTESIAN_POINT ( 'NONE',  ( 0.1260000000000000009, 0.2200000000000000011, -18.00000000000000000 ) ) ;
#280 = DIRECTION ( 'NONE',  ( 0.000000000000000000, 0.000000000000000000, -1.000000000000000000 ) ) ;
#281 = PRODUCT_DEFINITION_CONTEXT ( 'detailed design', #298, 'design' ) ;
#282 = DIRECTION ( 'NONE',  ( 0.000000000000000000, -1.000000000000000000, 0.000000000000000000 ) ) ;
#283 = AXIS2_PLACEMENT_3D ( 'NONE', #241, #243, #183 ) ;
#284 = DIRECTION ( 'NONE',  ( 0.000000000000000000, 0.000000000000000000, -1.000000000000000000 ) ) ;
#285 = EDGE_CURVE ( 'NONE', #244, #144, #213, .T. ) ;
#286 = MANIFOLD_SOLID_BREP ( 'Corner Smoothing', #237 ) ;
#287 = CARTESIAN_POINT ( 'NONE',  ( 0.1260000000000000009, 0.2200000000000000011, 0.000000000000000000 ) ) ;
#288 = DIRECTION ( 'NONE',  ( 0.000000000000000000, 0.000000000000000000, -1.000000000000000000 ) ) ;
#289 = VECTOR ( 'NONE', #292, 39.37007874015748143 ) ;
#290 = CARTESIAN_POINT ( 'NONE',  ( 0.000000000000000000, 0.2200000000000000011, 0.000000000000000000 ) ) ;
#291 = ORIENTED_EDGE ( 'NONE', *, *, #264, .T. ) ;
#292 = DIRECTION ( 'NONE',  ( 0.000000000000000000, 0.000000000000000000, -1.000000000000000000 ) ) ;
#293 = ORIENTED_EDGE ( 'NONE', *, *, #100, .F. ) ;
#294 = LINE ( 'NONE', #85, #289 ) ;
#295 = AXIS2_PLACEMENT_3D ( 'NONE', #239, #31, #7 ) ;
#296 = DIRECTION ( 'NONE',  ( 0.000000000000000000, -1.000000000000000000, 0.000000000000000000 ) ) ;
#297 = ORIENTED_EDGE ( 'NONE', *, *, #207, .F. ) ;
#298 = APPLICATION_CONTEXT ( 'automotive_design' ) ;
#299 = DIRECTION ( 'NONE',  ( 0.000000000000000000, 0.000000000000000000, -1.000000000000000000 ) ) ;
#300 = CARTESIAN_POINT ( 'NONE',  ( 0.000000000000000000, 0.000000000000000000, 0.000000000000000000 ) ) ;
#301 = APPLICATION_PROTOCOL_DEFINITION ( 'draft international standard', 'automotive_design', 1998, #323 ) ;
#302 = ORIENTED_EDGE ( 'NONE', *, *, #104, .T. ) ;
#303 = ORIENTED_EDGE ( 'NONE', *, *, #238, .T. ) ;
#304 =( NAMED_UNIT ( * ) PLANE_ANGLE_UNIT ( ) SI_UNIT ( $, .RADIAN. ) );
#305 = LINE ( 'NONE', #226, #195 ) ;
#306 = DIMENSIONAL_EXPONENTS ( 1.000000000000000000, 0.000000000000000000, 0.000000000000000000, 0.000000000000000000, 0.000000000000000000, 0.000000000000000000, 0.000000000000000000 ) ;
#307 = CARTESIAN_POINT ( 'NONE',  ( 17.87400000000000233, 0.2200000000000000011, -0.1260000000000000009 ) ) ;
#308 = DIRECTION ( 'NONE',  ( -1.000000000000000000, 0.000000000000000000, -0.000000000000000000 ) ) ;
#309 = DIRECTION ( 'NONE',  ( 0.000000000000000000, -1.000000000000000000, 0.000000000000000000 ) ) ;
#310 = VECTOR ( 'NONE', #263, 39.37007874015748143 ) ;
#311 = DIRECTION ( 'NONE',  ( 0.000000000000000000, 0.000000000000000000, 1.000000000000000000 ) ) ;
#312 = DIRECTION ( 'NONE',  ( 0.000000000000000000, 0.000000000000000000, -1.000000000000000000 ) ) ;
#313 = ORIENTED_EDGE ( 'NONE', *, *, #229, .F. ) ;
#314 = CARTESIAN_POINT ( 'NONE',  ( 17.87400000000000233, 0.2200000000000000011, 0.000000000000000000 ) ) ;
#315 = ORIENTED_EDGE ( 'NONE', *, *, #318, .T. ) ;
#316 = DIRECTION ( 'NONE',  ( -0.000000000000000000, 1.000000000000000000, -0.000000000000000000 ) ) ;
#317 = DIRECTION ( 'NONE',  ( 0.000000000000000000, 0.000000000000000000, -1.000000000000000000 ) ) ;
#318 = EDGE_CURVE ( 'NONE', #162, #170, #23, .T. ) ;
#319 = DIRECTION ( 'NONE',  ( 0.000000000000000000, 0.000000000000000000, -1.000000000000000000 ) ) ;
#320 =( CONVERSION_BASED_UNIT ( 'INCH', #171 ) LENGTH_UNIT ( ) NAMED_UNIT ( #45 ) );
#321 = DIRECTION ( 'NONE',  ( -0.000000000000000000, -0.000000000000000000, 1.000000000000000000 ) ) ;
#322 = VERTEX_POINT ( 'NONE', #13 ) ;
#323 = APPLICATION_CONTEXT ( 'automotive_design' ) ;
#324 = LINE ( 'NONE', #300, #77 ) ;
#325 = VECTOR ( 'NONE', #149, 39.37007874015748143 ) ;
#326 = EDGE_LOOP ( 'NONE', ( #37, #313, #297, #275 ) ) ;
#327 = CARTESIAN_POINT ( 'NONE',  ( 17.87400000000000233, 0.2200000000000000011, 0.000000000000000000 ) ) ;
#328 = DIRECTION ( 'NONE',  ( 0.000000000000000000, 0.000000000000000000, -1.000000000000000000 ) ) ;
#329 = ADVANCED_FACE ( 'NONE', ( #70 ), #245, .T. ) ;
#330 = VECTOR ( 'NONE', #62, 39.37007874015748143 ) ;
#331 = FACE_OUTER_BOUND ( 'NONE', #114, .T. ) ;
#332 = EDGE_CURVE ( 'NONE', #118, #40, #120, .T. ) ;
#333 = CARTESIAN_POINT ( 'NONE',  ( 0.000000000000000000, 0.000000000000000000, -17.87400000000000233 ) ) ;
ENDSEC;
END-ISO-10303-21;
