ISO-10303-21;
HEADER;
FILE_DESCRIPTION (( 'STEP AP214' ),
    '1' );
FILE_NAME ('am-5282 Belt Welder Lower Plate.STEP',
    '2023-12-15T19:45:19',
    ( '' ),
    ( '' ),
    'SwSTEP 2.0',
    'SolidWorks 2024',
    '' );
FILE_SCHEMA (( 'AUTOMOTIVE_DESIGN' ));
ENDSEC;

DATA;
#1 = UNCERTAINTY_MEASURE_WITH_UNIT (LENGTH_MEASURE( 1.000000000000000082E-05 ), #42, 'distance_accuracy_value', 'NONE');
#2 = DIRECTION ( 'NONE',  ( 0.000000000000000000, 0.000000000000000000, 1.000000000000000000 ) ) ;
#3 = EDGE_CURVE ( 'NONE', #343, #136, #307, .T. ) ;
#4 = CARTESIAN_POINT ( 'NONE',  ( 1.339457436567417532E-17, -0.1250000000000000000, -0.1093750000000000000 ) ) ;
#5 = AXIS2_PLACEMENT_3D ( 'NONE', #173, #306, #265 ) ;
#6 = VECTOR ( 'NONE', #114, 39.37007874015748143 ) ;
#7 = DIRECTION ( 'NONE',  ( 0.000000000000000000, 1.000000000000000000, 0.000000000000000000 ) ) ;
#8 = APPLICATION_CONTEXT ( 'automotive_design' ) ;
#9 = APPLICATION_PROTOCOL_DEFINITION ( 'draft international standard', 'automotive_design', 1998, #8 ) ;
#10 = ORIENTED_EDGE ( 'NONE', *, *, #69, .T. ) ;
#11 = CARTESIAN_POINT ( 'NONE',  ( 0.000000000000000000, -0.1250000000000000000, 0.3150000000000000022 ) ) ;
#12 = VECTOR ( 'NONE', #164, 39.37007874015748143 ) ;
#13 = CARTESIAN_POINT ( 'NONE',  ( 3.000000000000000444, 0.000000000000000000, -0.1093750000000000833 ) ) ;
#14 = CYLINDRICAL_SURFACE ( 'NONE', #44, 0.1093750000000000833 ) ;
#15 = ORIENTED_EDGE ( 'NONE', *, *, #192, .F. ) ;
#16 = CARTESIAN_POINT ( 'NONE',  ( 3.000000000000000444, -0.1250000000000000000, 0.000000000000000000 ) ) ;
#17 = DIRECTION ( 'NONE',  ( -1.000000000000000000, -0.000000000000000000, -0.000000000000000000 ) ) ;
#18 = DIRECTION ( 'NONE',  ( 0.000000000000000000, 1.000000000000000000, 0.000000000000000000 ) ) ;
#19 = AXIS2_PLACEMENT_3D ( 'NONE', #145, #99, #88 ) ;
#20 = DIRECTION ( 'NONE',  ( 0.000000000000000000, -0.000000000000000000, 1.000000000000000000 ) ) ;
#21 = EDGE_CURVE ( 'NONE', #315, #68, #323, .T. ) ;
#22 = ORIENTED_EDGE ( 'NONE', *, *, #331, .F. ) ;
#23 = VECTOR ( 'NONE', #76, 39.37007874015748143 ) ;
#24 = ORIENTED_EDGE ( 'NONE', *, *, #53, .T. ) ;
#25 = FACE_OUTER_BOUND ( 'NONE', #288, .T. ) ;
#26 = ORIENTED_EDGE ( 'NONE', *, *, #100, .T. ) ;
#27 = DIRECTION ( 'NONE',  ( -1.000000000000000000, 0.000000000000000000, -0.000000000000000000 ) ) ;
#28 = CARTESIAN_POINT ( 'NONE',  ( 0.000000000000000000, -0.1250000000000000000, 0.000000000000000000 ) ) ;
#29 =( NAMED_UNIT ( * ) SI_UNIT ( $, .STERADIAN. ) SOLID_ANGLE_UNIT ( ) );
#30 = CARTESIAN_POINT ( 'NONE',  ( 3.000000000000000444, 0.000000000000000000, 0.1093750000000000833 ) ) ;
#31 = CARTESIAN_POINT ( 'NONE',  ( 0.000000000000000000, 0.000000000000000000, 0.000000000000000000 ) ) ;
#32 = ADVANCED_FACE ( 'NONE', ( #246 ), #152, .F. ) ;
#33 = DIRECTION ( 'NONE',  ( 0.000000000000000000, 1.000000000000000000, 0.000000000000000000 ) ) ;
#34 = VERTEX_POINT ( 'NONE', #13 ) ;
#35 = DIRECTION ( 'NONE',  ( 0.000000000000000000, 0.000000000000000000, 1.000000000000000000 ) ) ;
#36 = CIRCLE ( 'NONE', #198, 0.3150000000000000022 ) ;
#37 = DIRECTION ( 'NONE',  ( 0.000000000000000000, 1.000000000000000000, 0.000000000000000000 ) ) ;
#38 = EDGE_LOOP ( 'NONE', ( #124, #22 ) ) ;
#39 =( LENGTH_UNIT ( ) NAMED_UNIT ( * ) SI_UNIT ( $, .METRE. ) );
#40 = PRODUCT_CONTEXT ( 'NONE', #8, 'mechanical' ) ;
#41 = DIRECTION ( 'NONE',  ( 0.000000000000000000, 0.000000000000000000, 1.000000000000000000 ) ) ;
#42 =( CONVERSION_BASED_UNIT ( 'INCH', #296 ) LENGTH_UNIT ( ) NAMED_UNIT ( #274 ) );
#43 = DIRECTION ( 'NONE',  ( 0.000000000000000000, 1.000000000000000000, 0.000000000000000000 ) ) ;
#44 = AXIS2_PLACEMENT_3D ( 'NONE', #328, #277, #150 ) ;
#45 = DIRECTION ( 'NONE',  ( 0.000000000000000000, 1.000000000000000000, 0.000000000000000000 ) ) ;
#46 = DIRECTION ( 'NONE',  ( -1.000000000000000000, -0.000000000000000000, -0.000000000000000000 ) ) ;
#47 = FACE_BOUND ( 'NONE', #295, .T. ) ;
#48 = ADVANCED_FACE ( 'NONE', ( #218 ), #14, .F. ) ;
#49 = CARTESIAN_POINT ( 'NONE',  ( 3.000000000000000444, -0.1250000000000000000, -0.3150000000000000022 ) ) ;
#50 = AXIS2_PLACEMENT_3D ( 'NONE', #224, #18, #79 ) ;
#51 = DIRECTION ( 'NONE',  ( 0.000000000000000000, 1.000000000000000000, 0.000000000000000000 ) ) ;
#52 = CIRCLE ( 'NONE', #234, 0.1093750000000000833 ) ;
#53 = EDGE_CURVE ( 'NONE', #141, #284, #74, .T. ) ;
#54 = FACE_OUTER_BOUND ( 'NONE', #208, .T. ) ;
#55 = FACE_BOUND ( 'NONE', #38, .T. ) ;
#56 = VERTEX_POINT ( 'NONE', #155 ) ;
#57 = CARTESIAN_POINT ( 'NONE',  ( 0.000000000000000000, -0.1250000000000000000, 0.1093750000000000000 ) ) ;
#58 = DIRECTION ( 'NONE',  ( 0.000000000000000000, 1.000000000000000000, 0.000000000000000000 ) ) ;
#59 = CIRCLE ( 'NONE', #322, 0.3150000000000000022 ) ;
#60 = AXIS2_PLACEMENT_3D ( 'NONE', #168, #128, #27 ) ;
#61 = ORIENTED_EDGE ( 'NONE', *, *, #205, .T. ) ;
#62 = ORIENTED_EDGE ( 'NONE', *, *, #21, .T. ) ;
#63 = CYLINDRICAL_SURFACE ( 'NONE', #110, 0.1093750000000000000 ) ;
#64 = EDGE_LOOP ( 'NONE', ( #184, #178, #119, #26 ) ) ;
#65 = DIRECTION ( 'NONE',  ( 1.000000000000000000, 0.000000000000000000, 0.000000000000000000 ) ) ;
#66 = EDGE_CURVE ( 'NONE', #146, #141, #98, .T. ) ;
#67 =( NAMED_UNIT ( * ) PLANE_ANGLE_UNIT ( ) SI_UNIT ( $, .RADIAN. ) );
#68 = VERTEX_POINT ( 'NONE', #268 ) ;
#69 = EDGE_CURVE ( 'NONE', #204, #34, #233, .T. ) ;
#70 = DIRECTION ( 'NONE',  ( 0.000000000000000000, 1.000000000000000000, 0.000000000000000000 ) ) ;
#71 = ORIENTED_EDGE ( 'NONE', *, *, #331, .T. ) ;
#72 = PRODUCT_DEFINITION_SHAPE ( 'NONE', 'NONE',  #276 ) ;
#73 = FACE_OUTER_BOUND ( 'NONE', #64, .T. ) ;
#74 = LINE ( 'NONE', #240, #183 ) ;
#75 = VECTOR ( 'NONE', #70, 39.37007874015748143 ) ;
#76 = DIRECTION ( 'NONE',  ( 1.000000000000000000, 0.000000000000000000, 0.000000000000000000 ) ) ;
#77 = EDGE_CURVE ( 'NONE', #228, #68, #101, .T. ) ;
#78 = CARTESIAN_POINT ( 'NONE',  ( 0.000000000000000000, -0.1250000000000000000, 0.3150000000000000022 ) ) ;
#79 = DIRECTION ( 'NONE',  ( 0.000000000000000000, 0.000000000000000000, 1.000000000000000000 ) ) ;
#80 = EDGE_CURVE ( 'NONE', #146, #56, #156, .T. ) ;
#81 = CARTESIAN_POINT ( 'NONE',  ( 0.000000000000000000, -0.1250000000000000000, 0.3150000000000000022 ) ) ;
#82 = DIRECTION ( 'NONE',  ( 0.000000000000000000, 1.000000000000000000, 0.000000000000000000 ) ) ;
#83 = ORIENTED_EDGE ( 'NONE', *, *, #77, .F. ) ;
#84 = ORIENTED_EDGE ( 'NONE', *, *, #261, .T. ) ;
#85 = ORIENTED_EDGE ( 'NONE', *, *, #181, .F. ) ;
#86 = ORIENTED_EDGE ( 'NONE', *, *, #314, .T. ) ;
#87 = ORIENTED_EDGE ( 'NONE', *, *, #263, .T. ) ;
#88 = DIRECTION ( 'NONE',  ( 0.000000000000000000, 0.000000000000000000, 1.000000000000000000 ) ) ;
#89 = ADVANCED_FACE ( 'NONE', ( #54 ), #251, .F. ) ;
#90 = AXIS2_PLACEMENT_3D ( 'NONE', #287, #58, #227 ) ;
#91 = SURFACE_SIDE_STYLE ('',( #117 ) ) ;
#92 = FILL_AREA_STYLE ('',( #236 ) ) ;
#93 = ORIENTED_EDGE ( 'NONE', *, *, #69, .F. ) ;
#94 = DIRECTION ( 'NONE',  ( 0.000000000000000000, 0.000000000000000000, 1.000000000000000000 ) ) ;
#95 = ORIENTED_EDGE ( 'NONE', *, *, #129, .T. ) ;
#96 = AXIS2_PLACEMENT_3D ( 'NONE', #151, #241, #35 ) ;
#97 = VECTOR ( 'NONE', #17, 39.37007874015748143 ) ;
#98 = LINE ( 'NONE', #242, #108 ) ;
#99 = DIRECTION ( 'NONE',  ( 0.000000000000000000, 1.000000000000000000, 0.000000000000000000 ) ) ;
#100 = EDGE_CURVE ( 'NONE', #316, #228, #334, .T. ) ;
#101 = LINE ( 'NONE', #196, #23 ) ;
#102 = PLANE ( 'NONE',  #166 ) ;
#103 = CIRCLE ( 'NONE', #147, 0.3150000000000000022 ) ;
#104 = DIRECTION ( 'NONE',  ( 0.000000000000000000, 1.000000000000000000, 0.000000000000000000 ) ) ;
#105 = EDGE_CURVE ( 'NONE', #136, #34, #138, .T. ) ;
#106 = DIRECTION ( 'NONE',  ( 0.000000000000000000, 1.000000000000000000, 0.000000000000000000 ) ) ;
#107 = CARTESIAN_POINT ( 'NONE',  ( 3.000000000000000444, -0.1250000000000000000, -0.1093750000000000833 ) ) ;
#108 = VECTOR ( 'NONE', #46, 39.37007874015748143 ) ;
#109 = ORIENTED_EDGE ( 'NONE', *, *, #192, .T. ) ;
#110 = AXIS2_PLACEMENT_3D ( 'NONE', #28, #82, #144 ) ;
#111 = ADVANCED_FACE ( 'NONE', ( #308, #47, #162 ), #283, .F. ) ;
#112 = ORIENTED_EDGE ( 'NONE', *, *, #202, .T. ) ;
#113 = ORIENTED_EDGE ( 'NONE', *, *, #205, .F. ) ;
#114 = DIRECTION ( 'NONE',  ( 1.000000000000000000, 0.000000000000000000, 0.000000000000000000 ) ) ;
#115 = ADVANCED_FACE ( 'NONE', ( #157 ), #312, .T. ) ;
#116 = PRODUCT_DEFINITION_FORMATION_WITH_SPECIFIED_SOURCE ( 'ANY', '', #177, .NOT_KNOWN. ) ;
#117 = SURFACE_STYLE_FILL_AREA ( #92 ) ;
#118 = CARTESIAN_POINT ( 'NONE',  ( 0.000000000000000000, -0.1250000000000000000, 0.000000000000000000 ) ) ;
#119 = ORIENTED_EDGE ( 'NONE', *, *, #132, .T. ) ;
#120 = DIMENSIONAL_EXPONENTS ( 1.000000000000000000, 0.000000000000000000, 0.000000000000000000, 0.000000000000000000, 0.000000000000000000, 0.000000000000000000, 0.000000000000000000 ) ;
#121 = UNCERTAINTY_MEASURE_WITH_UNIT (LENGTH_MEASURE( 1.000000000000000082E-05 ), #262, 'distance_accuracy_value', 'NONE');
#122 = APPLICATION_PROTOCOL_DEFINITION ( 'draft international standard', 'automotive_design', 1998, #232 ) ;
#123 =( GEOMETRIC_REPRESENTATION_CONTEXT ( 3 ) GLOBAL_UNCERTAINTY_ASSIGNED_CONTEXT ( ( #121 ) ) GLOBAL_UNIT_ASSIGNED_CONTEXT ( ( #262, #171, #29 ) ) REPRESENTATION_CONTEXT ( 'NONE', 'WORKASPACE' ) );
#124 = ORIENTED_EDGE ( 'NONE', *, *, #142, .F. ) ;
#125 = ORIENTED_EDGE ( 'NONE', *, *, #326, .F. ) ;
#126 = CIRCLE ( 'NONE', #154, 0.1093750000000000833 ) ;
#127 = EDGE_LOOP ( 'NONE', ( #215, #311, #86, #170 ) ) ;
#128 = DIRECTION ( 'NONE',  ( 0.000000000000000000, 0.000000000000000000, -1.000000000000000000 ) ) ;
#129 = EDGE_CURVE ( 'NONE', #136, #343, #126, .T. ) ;
#130 = CARTESIAN_POINT ( 'NONE',  ( 3.000000000000000444, 0.000000000000000000, 0.000000000000000000 ) ) ;
#131 = DIRECTION ( 'NONE',  ( 0.000000000000000000, 1.000000000000000000, 0.000000000000000000 ) ) ;
#132 = EDGE_CURVE ( 'NONE', #141, #316, #172, .T. ) ;
#133 = CARTESIAN_POINT ( 'NONE',  ( 0.000000000000000000, -0.1250000000000000000, 0.000000000000000000 ) ) ;
#134 = ADVANCED_BREP_SHAPE_REPRESENTATION ( 'am-5282 Belt Welder Lower Plate', ( #206, #201 ), #123 ) ;
#135 = CARTESIAN_POINT ( 'NONE',  ( 0.000000000000000000, -0.1250000000000000000, -0.3150000000000000022 ) ) ;
#136 = VERTEX_POINT ( 'NONE', #180 ) ;
#137 = AXIS2_PLACEMENT_3D ( 'NONE', #78, #182, #335 ) ;
#138 = LINE ( 'NONE', #107, #260 ) ;
#139 = ADVANCED_FACE ( 'NONE', ( #249, #55, #252 ), #102, .T. ) ;
#140 = DIRECTION ( 'NONE',  ( 0.000000000000000000, 1.000000000000000000, 0.000000000000000000 ) ) ;
#141 = VERTEX_POINT ( 'NONE', #135 ) ;
#142 = EDGE_CURVE ( 'NONE', #292, #176, #197, .T. ) ;
#143 = MECHANICAL_DESIGN_GEOMETRIC_PRESENTATION_REPRESENTATION (  '', ( #190 ), #193 ) ;
#144 = DIRECTION ( 'NONE',  ( 0.000000000000000000, 0.000000000000000000, 1.000000000000000000 ) ) ;
#145 = CARTESIAN_POINT ( 'NONE',  ( 0.000000000000000000, -0.1250000000000000000, 0.000000000000000000 ) ) ;
#146 = VERTEX_POINT ( 'NONE', #49 ) ;
#147 = AXIS2_PLACEMENT_3D ( 'NONE', #264, #7, #321 ) ;
#148 = EDGE_CURVE ( 'NONE', #286, #292, #160, .T. ) ;
#149 = PRESENTATION_STYLE_ASSIGNMENT (( #186 ) ) ;
#150 = DIRECTION ( 'NONE',  ( 0.000000000000000000, 0.000000000000000000, 1.000000000000000000 ) ) ;
#151 = CARTESIAN_POINT ( 'NONE',  ( 3.000000000000000444, -0.1250000000000000000, 0.000000000000000000 ) ) ;
#152 = CYLINDRICAL_SURFACE ( 'NONE', #245, 0.1093750000000000000 ) ;
#153 = DIRECTION ( 'NONE',  ( 0.000000000000000000, 0.000000000000000000, 1.000000000000000000 ) ) ;
#154 = AXIS2_PLACEMENT_3D ( 'NONE', #16, #131, #221 ) ;
#155 = CARTESIAN_POINT ( 'NONE',  ( 3.000000000000000444, 0.000000000000000000, -0.3150000000000000022 ) ) ;
#156 = LINE ( 'NONE', #248, #317 ) ;
#157 = FACE_OUTER_BOUND ( 'NONE', #200, .T. ) ;
#158 = ADVANCED_FACE ( 'NONE', ( #254 ), #267, .T. ) ;
#159 = CARTESIAN_POINT ( 'NONE',  ( 0.000000000000000000, 0.000000000000000000, 0.000000000000000000 ) ) ;
#160 = LINE ( 'NONE', #57, #12 ) ;
#161 = COLOUR_RGB ( '',0.7921568627450980005, 0.8196078431372548767, 0.9333333333333333481 ) ;
#162 = FACE_OUTER_BOUND ( 'NONE', #194, .T. ) ;
#163 = DIRECTION ( 'NONE',  ( 0.000000000000000000, 1.000000000000000000, 0.000000000000000000 ) ) ;
#164 = DIRECTION ( 'NONE',  ( 0.000000000000000000, 1.000000000000000000, 0.000000000000000000 ) ) ;
#165 = ORIENTED_EDGE ( 'NONE', *, *, #314, .F. ) ;
#166 = AXIS2_PLACEMENT_3D ( 'NONE', #278, #285, #20 ) ;
#167 = DIRECTION ( 'NONE',  ( 0.000000000000000000, 0.000000000000000000, 1.000000000000000000 ) ) ;
#168 = CARTESIAN_POINT ( 'NONE',  ( 0.000000000000000000, -0.1250000000000000000, -0.3150000000000000022 ) ) ;
#169 = ORIENTED_EDGE ( 'NONE', *, *, #100, .F. ) ;
#170 = ORIENTED_EDGE ( 'NONE', *, *, #293, .F. ) ;
#171 =( NAMED_UNIT ( * ) PLANE_ANGLE_UNIT ( ) SI_UNIT ( $, .RADIAN. ) );
#172 = CIRCLE ( 'NONE', #337, 0.3150000000000000022 ) ;
#173 = CARTESIAN_POINT ( 'NONE',  ( 3.000000000000000444, -0.1250000000000000000, 0.000000000000000000 ) ) ;
#174 = DIRECTION ( 'NONE',  ( 0.000000000000000000, 1.000000000000000000, 0.000000000000000000 ) ) ;
#175 = ORIENTED_EDGE ( 'NONE', *, *, #66, .F. ) ;
#176 = VERTEX_POINT ( 'NONE', #244 ) ;
#177 = PRODUCT ( 'am-5282 Belt Welder Lower Plate', 'am-5282 Belt Welder Lower Plate', '', ( #40 ) ) ;
#178 = ORIENTED_EDGE ( 'NONE', *, *, #53, .F. ) ;
#179 = DIRECTION ( 'NONE',  ( 0.000000000000000000, 0.000000000000000000, 1.000000000000000000 ) ) ;
#180 = CARTESIAN_POINT ( 'NONE',  ( 3.000000000000000444, -0.1250000000000000000, -0.1093750000000000833 ) ) ;
#181 = EDGE_CURVE ( 'NONE', #286, #319, #294, .T. ) ;
#182 = DIRECTION ( 'NONE',  ( 0.000000000000000000, 0.000000000000000000, 1.000000000000000000 ) ) ;
#183 = VECTOR ( 'NONE', #45, 39.37007874015748143 ) ;
#184 = ORIENTED_EDGE ( 'NONE', *, *, #263, .F. ) ;
#185 = AXIS2_PLACEMENT_3D ( 'NONE', #217, #33, #298 ) ;
#186 = SURFACE_STYLE_USAGE ( .BOTH. , #91 ) ;
#187 = LINE ( 'NONE', #216, #333 ) ;
#188 = CARTESIAN_POINT ( 'NONE',  ( 3.000000000000000444, -0.1250000000000000000, 0.000000000000000000 ) ) ;
#189 = ORIENTED_EDGE ( 'NONE', *, *, #3, .T. ) ;
#190 = STYLED_ITEM ( 'NONE', ( #149 ), #206 ) ;
#191 = ORIENTED_EDGE ( 'NONE', *, *, #261, .F. ) ;
#192 = EDGE_CURVE ( 'NONE', #319, #176, #327, .T. ) ;
#193 =( GEOMETRIC_REPRESENTATION_CONTEXT ( 3 ) GLOBAL_UNCERTAINTY_ASSIGNED_CONTEXT ( ( #1 ) ) GLOBAL_UNIT_ASSIGNED_CONTEXT ( ( #42, #67, #213 ) ) REPRESENTATION_CONTEXT ( 'NONE', 'WORKASPACE' ) );
#194 = EDGE_LOOP ( 'NONE', ( #313, #175, #258, #191 ) ) ;
#195 = ORIENTED_EDGE ( 'NONE', *, *, #148, .F. ) ;
#196 = CARTESIAN_POINT ( 'NONE',  ( 0.000000000000000000, 0.000000000000000000, 0.3150000000000000022 ) ) ;
#197 = CIRCLE ( 'NONE', #50, 0.1093750000000000000 ) ;
#198 = AXIS2_PLACEMENT_3D ( 'NONE', #301, #174, #153 ) ;
#199 = ADVANCED_FACE ( 'NONE', ( #73 ), #271, .T. ) ;
#200 = EDGE_LOOP ( 'NONE', ( #83, #169, #84, #62 ) ) ;
#201 = AXIS2_PLACEMENT_3D ( 'NONE', #31, #2, #65 ) ;
#202 = EDGE_CURVE ( 'NONE', #315, #146, #59, .T. ) ;
#203 = AXIS2_PLACEMENT_3D ( 'NONE', #159, #106, #167 ) ;
#204 = VERTEX_POINT ( 'NONE', #30 ) ;
#205 = EDGE_CURVE ( 'NONE', #68, #56, #103, .T. ) ;
#206 = MANIFOLD_SOLID_BREP ( 'Base-Flange1', #310 ) ;
#207 = PLANE ( 'NONE',  #60 ) ;
#208 = EDGE_LOOP ( 'NONE', ( #255, #230, #338, #10 ) ) ;
#209 =( LENGTH_UNIT ( ) NAMED_UNIT ( * ) SI_UNIT ( $, .METRE. ) );
#210 = PRODUCT_DEFINITION_CONTEXT ( 'detailed design', #232, 'design' ) ;
#211 = SHAPE_DEFINITION_REPRESENTATION ( #72, #134 ) ;
#212 = DIRECTION ( 'NONE',  ( 0.000000000000000000, 0.000000000000000000, 1.000000000000000000 ) ) ;
#213 =( NAMED_UNIT ( * ) SI_UNIT ( $, .STERADIAN. ) SOLID_ANGLE_UNIT ( ) );
#214 = LENGTH_MEASURE_WITH_UNIT ( LENGTH_MEASURE( 0.02539999999999999897 ), #209 );
#215 = ORIENTED_EDGE ( 'NONE', *, *, #129, .F. ) ;
#216 = CARTESIAN_POINT ( 'NONE',  ( 3.000000000000000444, -0.1250000000000000000, 0.1093750000000000833 ) ) ;
#217 = CARTESIAN_POINT ( 'NONE',  ( 0.000000000000000000, -0.1250000000000000000, 0.000000000000000000 ) ) ;
#218 = FACE_OUTER_BOUND ( 'NONE', #127, .T. ) ;
#219 = CARTESIAN_POINT ( 'NONE',  ( 3.000000000000000444, 0.000000000000000000, 0.000000000000000000 ) ) ;
#220 = DIRECTION ( 'NONE',  ( 0.000000000000000000, 1.000000000000000000, 0.000000000000000000 ) ) ;
#221 = DIRECTION ( 'NONE',  ( 0.000000000000000000, 0.000000000000000000, 1.000000000000000000 ) ) ;
#222 = CIRCLE ( 'NONE', #19, 0.1093750000000000000 ) ;
#223 = LINE ( 'NONE', #250, #97 ) ;
#224 = CARTESIAN_POINT ( 'NONE',  ( 0.000000000000000000, 0.000000000000000000, 0.000000000000000000 ) ) ;
#225 = EDGE_LOOP ( 'NONE', ( #93, #165 ) ) ;
#226 = AXIS2_PLACEMENT_3D ( 'NONE', #130, #220, #41 ) ;
#227 = DIRECTION ( 'NONE',  ( 0.000000000000000000, 0.000000000000000000, 1.000000000000000000 ) ) ;
#228 = VERTEX_POINT ( 'NONE', #269 ) ;
#229 = ORIENTED_EDGE ( 'NONE', *, *, #148, .T. ) ;
#230 = ORIENTED_EDGE ( 'NONE', *, *, #3, .F. ) ;
#231 = CARTESIAN_POINT ( 'NONE',  ( 0.000000000000000000, -0.1250000000000000000, 0.3150000000000000022 ) ) ;
#232 = APPLICATION_CONTEXT ( 'automotive_design' ) ;
#233 = CIRCLE ( 'NONE', #226, 0.1093750000000000833 ) ;
#234 = AXIS2_PLACEMENT_3D ( 'NONE', #219, #140, #297 ) ;
#235 = EDGE_CURVE ( 'NONE', #319, #286, #222, .T. ) ;
#236 = FILL_AREA_STYLE_COLOUR ( '', #161 ) ;
#237 = CARTESIAN_POINT ( 'NONE',  ( 3.000000000000000444, -0.1250000000000000000, 0.1093750000000000833 ) ) ;
#238 = CARTESIAN_POINT ( 'NONE',  ( 0.000000000000000000, 0.000000000000000000, 0.1093750000000000000 ) ) ;
#239 = AXIS2_PLACEMENT_3D ( 'NONE', #118, #303, #94 ) ;
#240 = CARTESIAN_POINT ( 'NONE',  ( 0.000000000000000000, -0.1250000000000000000, -0.3150000000000000022 ) ) ;
#241 = DIRECTION ( 'NONE',  ( 0.000000000000000000, 1.000000000000000000, 0.000000000000000000 ) ) ;
#242 = CARTESIAN_POINT ( 'NONE',  ( 0.000000000000000000, -0.1250000000000000000, -0.3150000000000000022 ) ) ;
#243 = CARTESIAN_POINT ( 'NONE',  ( 0.000000000000000000, 0.000000000000000000, -0.3150000000000000022 ) ) ;
#244 = CARTESIAN_POINT ( 'NONE',  ( 1.339457436567417532E-17, 0.000000000000000000, -0.1093750000000000000 ) ) ;
#245 = AXIS2_PLACEMENT_3D ( 'NONE', #272, #43, #330 ) ;
#246 = FACE_OUTER_BOUND ( 'NONE', #302, .T. ) ;
#247 = ORIENTED_EDGE ( 'NONE', *, *, #326, .T. ) ;
#248 = CARTESIAN_POINT ( 'NONE',  ( 3.000000000000000444, -0.1250000000000000000, -0.3150000000000000022 ) ) ;
#249 = FACE_BOUND ( 'NONE', #225, .T. ) ;
#250 = CARTESIAN_POINT ( 'NONE',  ( 0.000000000000000000, 0.000000000000000000, -0.3150000000000000022 ) ) ;
#251 = CYLINDRICAL_SURFACE ( 'NONE', #90, 0.1093750000000000833 ) ;
#252 = FACE_OUTER_BOUND ( 'NONE', #341, .T. ) ;
#253 = ORIENTED_EDGE ( 'NONE', *, *, #21, .F. ) ;
#254 = FACE_OUTER_BOUND ( 'NONE', #342, .T. ) ;
#255 = ORIENTED_EDGE ( 'NONE', *, *, #105, .F. ) ;
#256 = ORIENTED_EDGE ( 'NONE', *, *, #235, .F. ) ;
#257 = DIRECTION ( 'NONE',  ( 0.000000000000000000, 1.000000000000000000, 0.000000000000000000 ) ) ;
#258 = ORIENTED_EDGE ( 'NONE', *, *, #202, .F. ) ;
#259 = ORIENTED_EDGE ( 'NONE', *, *, #80, .F. ) ;
#260 = VECTOR ( 'NONE', #336, 39.37007874015748143 ) ;
#261 = EDGE_CURVE ( 'NONE', #316, #315, #329, .T. ) ;
#262 =( CONVERSION_BASED_UNIT ( 'INCH', #214 ) LENGTH_UNIT ( ) NAMED_UNIT ( #120 ) );
#263 = EDGE_CURVE ( 'NONE', #284, #228, #36, .T. ) ;
#264 = CARTESIAN_POINT ( 'NONE',  ( 3.000000000000000444, 0.000000000000000000, 0.000000000000000000 ) ) ;
#265 = DIRECTION ( 'NONE',  ( 0.000000000000000000, 0.000000000000000000, 1.000000000000000000 ) ) ;
#266 = ORIENTED_EDGE ( 'NONE', *, *, #77, .T. ) ;
#267 = CYLINDRICAL_SURFACE ( 'NONE', #96, 0.3150000000000000022 ) ;
#268 = CARTESIAN_POINT ( 'NONE',  ( 3.000000000000000444, 0.000000000000000000, 0.3150000000000000022 ) ) ;
#269 = CARTESIAN_POINT ( 'NONE',  ( 0.000000000000000000, 0.000000000000000000, 0.3150000000000000022 ) ) ;
#270 = ORIENTED_EDGE ( 'NONE', *, *, #80, .T. ) ;
#271 = CYLINDRICAL_SURFACE ( 'NONE', #239, 0.3150000000000000022 ) ;
#272 = CARTESIAN_POINT ( 'NONE',  ( 0.000000000000000000, -0.1250000000000000000, 0.000000000000000000 ) ) ;
#273 = FACE_OUTER_BOUND ( 'NONE', #300, .T. ) ;
#274 = DIMENSIONAL_EXPONENTS ( 1.000000000000000000, 0.000000000000000000, 0.000000000000000000, 0.000000000000000000, 0.000000000000000000, 0.000000000000000000, 0.000000000000000000 ) ;
#275 = CARTESIAN_POINT ( 'NONE',  ( 3.000000000000000444, -0.1250000000000000000, 0.3150000000000000022 ) ) ;
#276 = PRODUCT_DEFINITION ( 'UNKNOWN', '', #116, #210 ) ;
#277 = DIRECTION ( 'NONE',  ( 0.000000000000000000, 1.000000000000000000, 0.000000000000000000 ) ) ;
#278 = CARTESIAN_POINT ( 'NONE',  ( 0.000000000000000000, 0.000000000000000000, 0.000000000000000000 ) ) ;
#279 = PRODUCT_RELATED_PRODUCT_CATEGORY ( 'part', '', ( #177 ) ) ;
#280 = PRESENTATION_LAYER_ASSIGNMENT (  '', '', ( #190 ) ) ;
#281 = DIRECTION ( 'NONE',  ( 0.000000000000000000, 1.000000000000000000, 0.000000000000000000 ) ) ;
#282 = CIRCLE ( 'NONE', #203, 0.1093750000000000000 ) ;
#283 = PLANE ( 'NONE',  #345 ) ;
#284 = VERTEX_POINT ( 'NONE', #243 ) ;
#285 = DIRECTION ( 'NONE',  ( 0.000000000000000000, 1.000000000000000000, 0.000000000000000000 ) ) ;
#286 = VERTEX_POINT ( 'NONE', #290 ) ;
#287 = CARTESIAN_POINT ( 'NONE',  ( 3.000000000000000444, -0.1250000000000000000, 0.000000000000000000 ) ) ;
#288 = EDGE_LOOP ( 'NONE', ( #256, #109, #71, #195 ) ) ;
#289 = VECTOR ( 'NONE', #37, 39.37007874015748143 ) ;
#290 = CARTESIAN_POINT ( 'NONE',  ( 0.000000000000000000, -0.1250000000000000000, 0.1093750000000000000 ) ) ;
#291 = EDGE_LOOP ( 'NONE', ( #189, #95 ) ) ;
#292 = VERTEX_POINT ( 'NONE', #238 ) ;
#293 = EDGE_CURVE ( 'NONE', #343, #204, #187, .T. ) ;
#294 = CIRCLE ( 'NONE', #185, 0.1093750000000000000 ) ;
#295 = EDGE_LOOP ( 'NONE', ( #305, #325 ) ) ;
#296 = LENGTH_MEASURE_WITH_UNIT ( LENGTH_MEASURE( 0.02539999999999999897 ), #39 );
#297 = DIRECTION ( 'NONE',  ( 0.000000000000000000, 0.000000000000000000, 1.000000000000000000 ) ) ;
#298 = DIRECTION ( 'NONE',  ( 0.000000000000000000, 0.000000000000000000, 1.000000000000000000 ) ) ;
#299 = VECTOR ( 'NONE', #51, 39.37007874015748143 ) ;
#300 = EDGE_LOOP ( 'NONE', ( #125, #259, #340, #24 ) ) ;
#301 = CARTESIAN_POINT ( 'NONE',  ( 0.000000000000000000, 0.000000000000000000, 0.000000000000000000 ) ) ;
#302 = EDGE_LOOP ( 'NONE', ( #15, #85, #229, #320 ) ) ;
#303 = DIRECTION ( 'NONE',  ( 0.000000000000000000, 1.000000000000000000, 0.000000000000000000 ) ) ;
#304 = ADVANCED_FACE ( 'NONE', ( #273 ), #207, .T. ) ;
#305 = ORIENTED_EDGE ( 'NONE', *, *, #181, .T. ) ;
#306 = DIRECTION ( 'NONE',  ( 0.000000000000000000, 1.000000000000000000, 0.000000000000000000 ) ) ;
#307 = CIRCLE ( 'NONE', #5, 0.1093750000000000833 ) ;
#308 = FACE_BOUND ( 'NONE', #291, .T. ) ;
#309 = DIRECTION ( 'NONE',  ( 0.000000000000000000, -0.000000000000000000, 1.000000000000000000 ) ) ;
#310 = CLOSED_SHELL ( 'NONE', ( #48, #339, #199, #304, #158, #115, #111, #139, #32, #89 ) ) ;
#311 = ORIENTED_EDGE ( 'NONE', *, *, #105, .T. ) ;
#312 = PLANE ( 'NONE',  #137 ) ;
#313 = ORIENTED_EDGE ( 'NONE', *, *, #132, .F. ) ;
#314 = EDGE_CURVE ( 'NONE', #34, #204, #52, .T. ) ;
#315 = VERTEX_POINT ( 'NONE', #324 ) ;
#316 = VERTEX_POINT ( 'NONE', #231 ) ;
#317 = VECTOR ( 'NONE', #281, 39.37007874015748143 ) ;
#318 = DIRECTION ( 'NONE',  ( 0.000000000000000000, 1.000000000000000000, 0.000000000000000000 ) ) ;
#319 = VERTEX_POINT ( 'NONE', #344 ) ;
#320 = ORIENTED_EDGE ( 'NONE', *, *, #142, .T. ) ;
#321 = DIRECTION ( 'NONE',  ( 0.000000000000000000, 0.000000000000000000, 1.000000000000000000 ) ) ;
#322 = AXIS2_PLACEMENT_3D ( 'NONE', #188, #318, #212 ) ;
#323 = LINE ( 'NONE', #275, #289 ) ;
#324 = CARTESIAN_POINT ( 'NONE',  ( 3.000000000000000444, -0.1250000000000000000, 0.3150000000000000022 ) ) ;
#325 = ORIENTED_EDGE ( 'NONE', *, *, #235, .T. ) ;
#326 = EDGE_CURVE ( 'NONE', #56, #284, #223, .T. ) ;
#327 = LINE ( 'NONE', #4, #75 ) ;
#328 = CARTESIAN_POINT ( 'NONE',  ( 3.000000000000000444, -0.1250000000000000000, 0.000000000000000000 ) ) ;
#329 = LINE ( 'NONE', #11, #6 ) ;
#330 = DIRECTION ( 'NONE',  ( 0.000000000000000000, 0.000000000000000000, 1.000000000000000000 ) ) ;
#331 = EDGE_CURVE ( 'NONE', #176, #292, #282, .T. ) ;
#332 = CARTESIAN_POINT ( 'NONE',  ( 0.000000000000000000, -0.1250000000000000000, 0.000000000000000000 ) ) ;
#333 = VECTOR ( 'NONE', #257, 39.37007874015748143 ) ;
#334 = LINE ( 'NONE', #81, #299 ) ;
#335 = DIRECTION ( 'NONE',  ( 1.000000000000000000, 0.000000000000000000, -0.000000000000000000 ) ) ;
#336 = DIRECTION ( 'NONE',  ( 0.000000000000000000, 1.000000000000000000, 0.000000000000000000 ) ) ;
#337 = AXIS2_PLACEMENT_3D ( 'NONE', #332, #104, #179 ) ;
#338 = ORIENTED_EDGE ( 'NONE', *, *, #293, .T. ) ;
#339 = ADVANCED_FACE ( 'NONE', ( #25 ), #63, .F. ) ;
#340 = ORIENTED_EDGE ( 'NONE', *, *, #66, .T. ) ;
#341 = EDGE_LOOP ( 'NONE', ( #87, #266, #61, #247 ) ) ;
#342 = EDGE_LOOP ( 'NONE', ( #113, #253, #112, #270 ) ) ;
#343 = VERTEX_POINT ( 'NONE', #237 ) ;
#344 = CARTESIAN_POINT ( 'NONE',  ( 1.339457436567417532E-17, -0.1250000000000000000, -0.1093750000000000000 ) ) ;
#345 = AXIS2_PLACEMENT_3D ( 'NONE', #133, #163, #309 ) ;
ENDSEC;
END-ISO-10303-21;
